Cheer Up Son We All Make Mistakes Tab by Heavy Heavy Low Low


E|----------------------------------------------------------------|       
B|-----5----4---5---7----5---4---5--------------------------------|
G|-----8----7---8---10---8---7---8--------------------------------|
D|-0-0----0---0---0---0---0---0-----------------------------------|
A|-0-0----0---0---0---0---0---0-----------------------------------|
E|-0-0----0---0---0---0---0---0-----------------------------------|

E|----------------------------------------------------------------|       
B|-----9----8----9----11---9----8----9----------------------------|
G|-----12---11---12---14---12---11---12---------------------------|
D|-0-0----0----0----0----0----0----0------------------------------|
A|-0-0----0----0----0----0----0----0------------------------------|
E|-0-0----0----0----0----0----0----0------------------------------|

All Opens Are Palm Muted
Show more