ok, so Hedley is the best fuckin' band on the planet so I wanted to tab out this song, 
cause it fuckin amazing
Song: On My Own
Artist: Hedley
Album: Hedley
Tuning: Standard
Written By: Brian Howes,Jacob Hoggard,Dave Rosin,Tom MacDonald,and Chris Crippin


Intro- the intro is actually on like keyboards or with some sort of effects but here it 
on guitar
e|-------4---------------4----------|
B|----6-4-6-2-4-------6-4-6-2-4-----|
G|---6---------------6--------------|
D|-------------6--------------------|
A|----------------------------------|
E|----------------------------------|

Verse
   p.m. ..............    ..............    ..............
e|---------------------------------------------------------------------|
B|---------------------------------------------------------------------|
G|---66-66666666666666-------------------------------------------------|
D|---66-66666666666666-66-66666666666666-88-88888888888888-44x44x4-----| 2x
A|---44-44444444444444-66-66666666666666-88-88888888888888-44x44x4-----|
E|---------------------44-44444444444444-66-66666666666666-22x22x2-----|

Chorus
e|----------------------------------------------------------------------|
B|----------------------------------------------------------------------|
G|---66666666-----------------------------------------------------------|
D|---66666666-66666666-88888888-66666666-4444444444444444-6666666666666-| 2x
A|---44444444-33333333-88888888-66666666-4444444444444444-6666666666666-|
E|---------------------66666666-44444444-2222222222222222-4444444444444-|

then there comes this little part from the intro but it changes at the end
e|-----4------------4-----------4-----------------------------------------|
B|--6-4-6-2-4----6-4-6-2-4---6-4-6-2-4------------------------------------|
G|-6------------6-----------6------------6-5-6-5-6-5-3-1--6-5-6-5-6-8-6-5-|
D|-----------6------------------------6-----------------------------------|
A|------------------------------------------------------------------------|
E|------------------------------------------------------------------------|

Verse
   p.m. ..............    ..............    ..............
e|---------------------------------------------------------------------|
B|---------------------------------------------------------------------|
G|---66-66666666666666-------------------------------------------------|
D|---66-66666666666666-66-66666666666666-88-88888888888888-44x44x4-----| 1x
A|---44-44444444444444-66-66666666666666-88-88888888888888-44x44x4-----|
E|---------------------44-44444444444444-66-66666666666666-22x22x2-----|

Chorus
e|----------------------------------------------------------------------|
B|----------------------------------------------------------------------|
G|---66666666-----------------------------------------------------------|
D|---66666666-66666666-88888888-66666666-4444444444444444-6666666666666-| 2x
A|---44444444-33333333-88888888-66666666-4444444444444444-6666666666666-|
E|---------------------66666666-44444444-2222222222222222-4444444444444-|

the end of that chorus leads into the bridge
Bridge ........
e|------------------------------------------------------------------|
B|------------------------------------------------------------------|
G|------------------------------------------------------------------|
D|-----66666666-4444444444444444-88888888-66666666-4444444444444444-|  cont.
A|-----66666666-4444444444444444-88888888-66666666-4444444444444444-|
E|-----44444444-2222222222222222-66666666-44444444-2222222222222222-|

e|----------4~~~----------|
B|----------4~~~----------|
G|----------5~~~----------|
D|---66666666~~~----------|
A|---66666666~~~----------|
E|---44444444~~~----------|

Breakdown
     ........ ........ ........ ........ ................ .............
e|----------------------------------------------------------------------|
B|----------------------------------------------------------------------|
G|---66666666-----------------------------------------------------------|
D|---66666666-66666666-88888888-66666666-4444444444444444-6666666666666-|cont
A|---44444444-33333333-88888888-66666666-4444444444444444-6666666666666-|
E|---------------------66666666-44444444-2222222222222222-4444444444444-|

e|----------------|
B|----------------|
G|----------------|
D|---44x44x4.-----|
A|---44x44x4.-----|
E|---22x22x2.-----|

Chorus
e|----------------------------------------------------------------------|
B|----------------------------------------------------------------------|
G|---66666666-----------------------------------------------------------|
D|---66666666-66666666-88888888-66666666-4444444444444444-6666666666666-| 2x
A|---44444444-33333333-88888888-66666666-4444444444444444-6666666666666-|
E|---------------------66666666-44444444-2222222222222222-4444444444444-|

Outro
e|-----------------------------------------------------------------|
B|-----------------------------------------------------------------|
G|-----------------------------------------------------------------|
D|---4444444444444444-6666666666666-4444444444444444-6666666666666-| cont.
A|---4444444444444444-6666666666666-4444444444444444-6666666666666-|
E|---2222222222222222-4444444444444-2222222222222222-4444444444444-|

e|-------------------------------------------------------------------------|
B|-------------------------------------------------------------------------|
G|-------------------------------------------------------------------------|
D|---4444444444444444-6666666666666-4444444444444444-6666666666666666~~~---|
A|---4444444444444444-6666666666666-4444444444444444-6666666666666666~~~---|
E|---2222222222222222-4444444444444-2222222222222222-4444444444444444~~~---|

on the album at the end of the song theres a little part that goes like this in between 
10 and 13 frets

e|--------------------------------------|
B|--------------------------------------|
G|---131313111111101010111110101111-----|
D|---111111111111111111111111111111-----| 5x
A|--------------------------------------|
E|--------------------------------------|

and thats the entire song, its by an awesome band and its a great song, have fun!
oh, and dont forget to rate
Show more