Im not too sure about what the Tuneing is, but i use Half a step down on this one.
Artist:Hedley
Album: Hedley
Song: On My Own

_____
Intro

Eb--------4---------------4---------|
Bb-----6-4-6-2-4-------6-4-6-2-4----|
Gb----6---------------6-------------|
Db---------------6------------------|
Ab----------------------------------|
Eb----------------------------------|

_______
Verse 1

Eb-----------------------------------------------------------|
Bb-----------------------------------------------------------|
Gb--6-6-6666666666666----------------------------------------|
Db--6-6-6666666666666--6-6-6666666666666--8-8-8888888888888--|
Ab--4-4-4444444444444--6-6-6666666666666--8-8-8888888888888--|
Eb---------------------4-4-4444444444444--6-6-6666666666666--|

Eb-------------------|
Bb-------------------|
Gb-------------------|
Db--444x444x44-------|
Ab--444x444x44-------|
Eb--222x222x22-------|

Eb-----------------------------------------------------------|
Bb-----------------------------------------------------------|
Gb--6-6-6666666666666----------------------------------------|
Db--6-6-6666666666666--6-6-6666666666666--8-8-8888888888888--|
Ab--4-4-4444444444444--6-6-6666666666666--8-8-8888888888888--|
Eb---------------------4-4-4444444444444--6-6-6666666666666--|

Eb-------------------|
Bb-------------------|
Gb-------------------|
Db--444x444x44-------|
Ab--444x444x44-------|
Eb--222x222x22-------|

______
Chorus

Eb----------------------------------------------------------------------|
Bb----------------------------------------------------------------------|
Gb---66666666-----------------------------------------------------------|
Db---66666666-66666666-88888888-66666666-4444444444444444-6666666666666-|
Ab---44444444-33333333-88888888-66666666-4444444444444444-6666666666666-|
Eb---------------------66666666-44444444-2222222222222222-4444444444444-|

Eb----------------------------------------------------------------------|
Bb----------------------------------------------------------------------|
Gb---66666666-----------------------------------------------------------|
Db---66666666-66666666-88888888-66666666-4444444444444444-6666666666666-|
Ab---44444444-33333333-88888888-66666666-4444444444444444-6666666666666-|
Eb---------------------66666666-44444444-2222222222222222-4444444444444-|

___________________
Intro to next Verse

Eb-----4------------4-----------4-----------------------------------------|
Bb--6-4-6-2-4----6-4-6-2-4---6-4-6-2-4------------------------------------|
Gb-6------------6-----------6------------6-5-6-5-6-5-3-1--6-5-6-5-6-8-6-5-|
Db-----------6------------------------6-----------------------------------|
Ab------------------------------------------------------------------------|
Eb------------------------------------------------------------------------|

_____
Verse

Eb-----------------------------------------------------------|
Bb-----------------------------------------------------------|
Gb--6-6-6666666666666----------------------------------------|
Db--6-6-6666666666666--6-6-6666666666666--8-8-8888888888888--|
Ab--4-4-4444444444444--6-6-6666666666666--8-8-8888888888888--|
Eb---------------------4-4-4444444444444--6-6-6666666666666--|

Eb-------------------|
Bb-------------------|
Gb-------------------|
Db--444x444x44-------|
Ab--444x444x44-------|
Eb--222x222x22-------|

______
Chorus

Eb----------------------------------------------------------------------|
Bb----------------------------------------------------------------------|
Gb---66666666-----------------------------------------------------------|
Db---66666666-66666666-88888888-66666666-4444444444444444-6666666666666-|
Ab---44444444-33333333-88888888-66666666-4444444444444444-6666666666666-|
Eb---------------------66666666-44444444-2222222222222222-4444444444444-|

Eb----------------------------------------------------------------------|
Bb----------------------------------------------------------------------|
Gb---66666666-----------------------------------------------------------|
Db---66666666-66666666-88888888-66666666-4444444444444444-6666666666666-|
Ab---44444444-33333333-88888888-66666666-4444444444444444-6666666666666-|
Eb---------------------66666666-44444444-2222222222222222-4444444444444-|

______
Bridge


Eb------------------------------------------------------------------|
Bb------------------------------------------------------------------|
Gb------------------------------------------------------------------|
Db-----66666666-4444444444444444-88888888-66666666-4444444444444444-|
Ab-----66666666-4444444444444444-88888888-66666666-4444444444444444-|
Eb-----44444444-2222222222222222-66666666-44444444-2222222222222222-|

Eb------------------------|
Bb------------------------|
Gb------------------------|
Db---66666666-------------|
Ab---66666666-------------|
Eb---44444444-------------|

_________
Breakdown

Eb----------------------------------------------------------------------|
Bb----------------------------------------------------------------------|
Gb---66666666-----------------------------------------------------------|
Db---66666666-66666666-88888888-66666666-4444444444444444-6666666666666-|
Ab---44444444-33333333-88888888-66666666-4444444444444444-6666666666666-|
Eb---------------------66666666-44444444-2222222222222222-4444444444444-|

Eb------------------|
Bb------------------|
Gb------------------|
Db---444x444x44-----|
Ab---444x444x44-----|
Eb---222x222x22-----|

______
Chorus

Eb----------------------------------------------------------------------|
Bb----------------------------------------------------------------------|
Gb---66666666-----------------------------------------------------------|
Db---66666666-66666666-88888888-66666666-4444444444444444-6666666666666-|
Ab---44444444-33333333-88888888-66666666-4444444444444444-6666666666666-|
Eb---------------------66666666-44444444-2222222222222222-4444444444444-|

Eb----------------------------------------------------------------------|
Bb----------------------------------------------------------------------|
Gb---66666666-----------------------------------------------------------|
Db---66666666-66666666-88888888-66666666-4444444444444444-6666666666666-|
Ab---44444444-33333333-88888888-66666666-4444444444444444-6666666666666-|
Eb---------------------66666666-44444444-2222222222222222-4444444444444-|

_____
Outro

Eb-----------------------------------------------------------------|
Bb-----------------------------------------------------------------|
Gb-----------------------------------------------------------------|
Db---4444444444444444-6666666666666-4444444444444444-6666666666666-|
Ab---4444444444444444-6666666666666-4444444444444444-6666666666666-|
Eb---2222222222222222-4444444444444-2222222222222222-4444444444444-|

Eb----------------------------------------------------------------------|
Bb----------------------------------------------------------------------|
Gb----------------------------------------------------------------------|
Db---4444444444444444-6666666666666-4444444444444444-6666666666666666---|
Ab---4444444444444444-6666666666666-4444444444444444-6666666666666666---|
Eb---2222222222222222-4444444444444-2222222222222222-4444444444444444---|


Anybody can use this song, but don't copy it please
Show more