Inside Tab by Hell Is For Heroes


e|--------------------------------------------------------|
B|--------------------------------------------------------|
G|--------------------------------------------------------|
D|------11-11-9-9-----11-11-11-11-9-9-9-9-------11-11-9-9-|
A|--9-9-----------9-9-------------------------------------|
E|------------------------------------------9-9-----------|

e|-------------------------|
B|-------------------------|
G|-------------------------|
D|----11-11-11-11-9-9-9-9--|
A|-------------------------|
D|9-9----------------------|
Show more