Biblical Violence Tab by Hella


Biblical Violence
by Spencer Seim and Zach Hill
tab by JA

Good luck. This is a difficult song to nail.

  A
e-----0-------------------- --------|
b-------------------------- --------|
g-----9------------9--9---- -11-----|
d-------------------------- (12?)---|
a-9---9---9-10-10-10-10-10- -9------|
D-0------------------------ -0------|

  B
e---------------------------------|
b---------------------------------|
g------------16-------------------|
d--------4-5---4----4--4--4--4--4-|
a---------------------------------|
D-16-0-4---------0-3--------------|
  All tapped, higher notes with fretting hand.

  C
e--------------------------------------------------------------------|
b--------------------------------------------------------------------|
g-----------------------------------------9-----------------------9--|
d-----------------------------------------9-----------------------9--|
a-------------6h7/9--------------6h7/9-------------------6h7/9-------|
D-16-0-4h5-16--------16-0-4h5-16-------------16-0-4h5-16-------------|
  All tapped


  D
e---------------------------------------------------------|
b---------------------------------------------------------|
g------------16------15-----------------------16-------15-|
d--------4-5-----4-5-----------4-5--------4-5------4-5----|
a---------------------------------------------------------|
D-16-0-4-------4--------16-0-4-----16-0-4--------4--------|
  All tapped

  E
e------------- ------------------------------------------|
b------------- ------------------------------------------|
g------------- ------------------------------------------|
d------------- ------------------------------------------|
a---4---4---5- -----11--11--14--11--9---12--9--4-4--5----|
D-0---0---000- ---0---0---0---0---0---0---0---0-0-000----|
  Stomp on distortion box and use your pick.


e---------------------------------------|
b---------------------------------------|
g---------------------------------------|
d---------------------------------------|
a---11--11--14--11--9---12--9---16--17--|
D-0---0---0---0---0---0---0---0---0-----|

  F
  This is the slower part with the stuttering tapped melody. The bass notes are played 
the fretting hand, the stuttering higher notes by the picking hand. Good luck with this part...


e-----------------------------------------------------------------------------------------|
b---------------------------------------------7--7--7-------------------------------------|
g-11-11-11--------------11-11-11------------------------------------11-11-11--------------|
d-----------------------------------------------------------------------------------------|
a-----------------------------------------------------------------------------------------|
D-12---------12---------12---------12---------12---------12---------12---------12---------|


e-----------------------------------------------------------------------------------------|
b---------------------------------------------7--7--7-------------------------------------|
g-11-11-11--------------11-11-11------------------------------------11-11-11--------------|
d-----------------------------------------------------------------------------------------|
a-----------------------------------------------------------------------------------------|
D-12---------12---------12---------12---------12---------12---------12---------10---------|


e------------------------------------------------------------------------------------------|
b--------------------------------------7------7-------------------------------7------7-----|
g-7-7-7---------------7-7-7-----------------------7-----------7-7-7----------------------7-|
d------------------------------------------------------------------------------------------|
a------------------------------------------------------------------------------------------|
D-9---------9---------9---------9---------9---------9---------9---------9--------9---------|


e---------------------------------------------------------------------------------|
b----------------------------7------7---------------------------------------------|
g-----------7-7-7-----------------------7-----------------------------------------|
d---------------------------------------------------------------9---9-------------|
a---------------------------------------------------------------------------------|
D-9---------9---------9---------9---------9---------9---------9---------9-----/---|
                                             Play x times and end with riff E
Show more