• Song:

    Midnight Lady

  • Artist:

    Hellfueled

  • Album:

    Midnight Lady

Midnight Lady Tab by Hellfueled


I managed to figure out this intro out after a while


Tune down your guitar 1 step

--0--0--7--6--0--6--5-------------------|
----------------------------7--5--7-----|
-------------------------5--------------|
----------------------------------------|
----------------------------------------|
----------------------------------------|

-----------3----3----------------------5-------5---------|
--3---3-------5----5-----5-----5-----------7-------7-----|
----5---5-------------------7------7---------------------|
---------------------------------------------------------|
---------------------------------------------------------|
---------------------------------------------------------|

Last time play:

--0--0--7--6--0--6--5-------------------|
----------------------------7--5--7-----|
-------------------------5--------------|
----------------------------------------|
----------------------------------------|
----------------------------------------|

-----------3----3-----------------------|
--3---3-------5----5-----5-----5--------|
----5---5-------------------7------7----|
----------------------------------------|
----------------------------------------|
----------------------------------------|

Eny comment or questions on the tab, mail me at larsbrundin20@hotmail.com
Show more