• Song:

    Through It All

  • Artist:

    Hillsong United

sponsored links
Through It All Tab by United Live


Through it all by United live
Tabbed by: Ferdinand Bato
Tuning: Standard


Intro:
     G     D/F#        Em            CM7        Dsus-D
e-------------2-3-5---------------------0------------------------|         
b--1-------0--------3-----------0-3--0-------------3-------------|          
g-------0---------------------0-----------2------2---------------| 	  
d-----0---------------------0------------------0-----------------|
a-------------------------2----------3-------0-------------------|
e--3--------------------0----------------------------------------|

   G       D/F#        Em            CM7        Dsus-D
e----------------------------------------0-----0-----3---2-------|
b-1-----------------------------0-3---0--------------------------|
g----0---0--------------------0-------------2--------------------|
d---0-----------------------0---------------------0--0---0-------|
a------0---0--------------2-----------3--------------------------|
e-3---------------------0----------------------------------------|
                       repeat twice

verse: G-D/F#-Em-CM7-Dsus-D
refrain: Bm-CM7-Bm-C-D
(Repeat Verse and Chorus)
Bridge:G Em  CM7 Dsus-D     Hallelujah....(4x)
(Repeat Chorus)
Coda:G--Em--CM7--Dsus-D

dis is mah first tab so injoy it
Show more
sponsored links
sponsored links