• Song:

    All Day

  • Artist:

    Hillsongs

Bass tuning: E A D G

 Intro/verse: awsome tab if you can play it well
G------------------------------1----------------------------------------|
D-------------------------22-------2---------1-2------------------------|
A------------------1-2------------------22--------------------2-1-------|
E-----------44-----------------------------------------22---------------|

Pre- chorus:

G-----------------------------------------------------------------------|
D-----------------------------------------------------------------------|
A-------------------2---------------------------------------------------|
E------4----0--------------2--------------------------------------------|


Chorus:

G------------------------------------------------------------------------|
D------------------------------------------------------------------------|
A------2--------2----------2---------------------------------------------|
E----------0---------2----------0------4----2----------------------------|
All day, All day now.............................

Bridge:

G-----------------------------------------------------------|
D-----------------------------------------------------------|
A--4----------7---X3--------4--------7------------2---X1----|
E-----------------------------------------------------------|
                            ........i pay that you would save them to.
Show more