• Song:

    The Lost Are Found

  • Artist:

    Hillsongs

  • Album:

    God Is Able

First tab, soory if its abit off!


E-------11---14---11-------11---14---11--------11------11-------11-|
B---12----------------12------------------12-------14--------11----|
G-----11-----------------11------------------11--------------------|
D------------------------------------------------------------------|
A------------------------------------------------------------------|
E------------------------------------------------------------------|

E-------------------------------------------|
B-----12----11-----9-----11s12--------------|
G-------------------------------------------|
D-------------------------------------------|
A-------------------------------------------|
E-------------------------------------------|
Show more