sponsored links
Email: fadetoblack726@yahoo.com 
 
Tuning: Standard (to play intro it can be standard) 
 
FULL SONG COMING SOON, HERE IS CORRECT INTRO 
 
|--------------------------|-----------------------------------| 
|---6----6----6--4h6p4-----|--4----4----4----4----4--2h4p2-----| 
|-----------------------6--|--------------------------------4--| 
|------8----8--------------|-----6----6----6----6--------------| 
|--------------------------|-----------------------------------| 
|--------------------------|-----------------------------------| 
               
continued...   
 
|--------------------| 
|--2----2----2<<<<<<<<<<

                
Show more
sponsored links
sponsored links