Artist: Hot Chelle Rae
Song: Never Ever Have I
Album: Lovesick Electric
Tabbed by: gustavoaraujo999@hotmail.com

**This is a mix of the guitar parts, electronic parts and some bits I came up with.

[Intro] 
0:00
e|-----------------------|-------------------------|
B|------12---10----------|------12----10----9-10---|
G|---11----11----11-9----|---11----11----11--------| [x4]
D|-9------------------11-|-9-----------------------|
A|-----------------------|-------------------------|
E|-----------------------|-------------------------|

[Verse 1] 
0:20
e|-----------------------------------------|--------|
B|-10-9-10-----------10-9-10---------------|--------|
G|---------11-9-11-----------11-11-11-9-11-|--[x2]--|
D|-----------------------------------------|--------|
A|-----------------------------------------|--------|
E|-----------------------------------------|--------|

[Pre-chorus] 
0:33
e|------------------------------------------------------------------|
B|---------------------9-10----------------------10-12--------------|
G|-11-11--11-11--11-11-------11-11--11-11--11-11--------------------|
D|------------------------------------------------------------------|
A|------------------------------------------------------------------|
E|------------------------------------------------------------------|

[Chorus] 
0:40
e|------------------------------------------------------------------|
B|----------5555----------------------------------------------------|
G|-11111111-6666-4444-2222------------------------------------------|
D|-11111111-6666-4444-4444--[x2]------------------------------------|
A|-9-9-9-9--4444-2222-4444------------------------------------------|
E|--------------------2222------------------------------------------|
 
[Bridge] 
0:54
e|----------------------------------------------------------|
B|------------------------------7777-9999-10101010-12121212-|
G|-1111111-10101010-9999-8888---xxxx-xxxx-x-x-x-x--x-x-x-x--|
D|-x-x-x-x-x-x-x-x--xxxx-xxxx---4444-6666-7-7-7-7--9-9-9-9--|
A|-9-9-9-9-8-8-8-8--7777-6666-------------------------------|
E|----------------------------------------------------------|

[Pre-verse] 
1:07
e|--------------------------------------------------------------|
B|--------------------------------------------------------------|
G|-11--11--11-11-11-11--11-9------------------------------------|
D|--------------------------------------------------------------|
A|--------------------------------------------------------------|
E|--------------------------------------------------------------|

[Verse 2] 
1:11
e|-----------------------------------------|------------------------|
B|-10-9-10-----------10-9-10---------------|------------------------|
G|---------11-9-11-----------11-11-11-9-11-|--[x2]------------------|
D|-----------------------------------------|------------------------|
A|-----------------------------------------|------------------------|
E|-----------------------------------------|------------------------|
 
[Pre-chorus] 
1:24

[Chorus] 
1:31

[Bridge] 
1:45

[Solo] 
1:57
e|------------------------------------------------------------------|
B|-(Sorry, but just couldn't pull this off)-------------------------|
G|-(I love this solo, so if someone did tab it, please inform me)---|
D|------------------------------------------------------------------|
A|------------------------------------------------------------------|
E|------------------------------------------------------------------|

[Chorus]
2:12                 
First half is silent

2:19
e|------------------------------------------------------------------|
B|------------------------------------------------------------------|
G|------------------------------------------------------------------|
D|------------------------------------------------------------------|
A|-99999999-44444444-22222222---------------------------------------|
E|----------------------------22222222------------------------------|

[Chorus] 
2:26

[Bridge] 
2:40

[Outro] 
2:52
e|-----------------------|-------------------------|
B|------12---10----------|------12----10----9-10---|
G|---11----11----11-9----|---11----11----11--------|
D|-9------------------11-|-9-----------------------|
A|-----------------------|-------------------------|
E|-----------------------|-------------------------|

e|-----------------------------------------------|
B|------12---10----------------------------------|
G|---11----11----11-9-----9-11\------------------|
D|-9------------------11--x-x-\------------------|
A|------------------------7-9-\------------------|
E|-----------------------------------------------|
Show more