• Song:

    Bourbon Street

  • Artist:

    Hurriganes

  • Album:

    Jailbird_1080

Riff 1.
|----------------|----------------|----------------|----------------|
|----------------|----------------|----------------|----------------|
|----------------|----------------|----------------|----------------|
|8-8-8---8-8-8-8-|5-5-5---5-5-5-5-|1-1-1---1-1-1-1-|3-3-3---3-3-3-3-|

Riff 2.
|----------------|----------------|----------------|----------------|
|----2---5---2---|--------2-------|----------------|----------------|
|3---------------|0---3-------3---|----0---3---0---|----2---5---2---|
|----------------|----------------|1---------------|3---------------|

Riff 3.
|----------------|----------------|----------------|----------------|
|----2---5---2---|--------2-------|----------------|----------------|
|3---------------|0---3-------3---|----0---3---0---|----------------|
|----------------|----------------|1---------------|3---3---5---7---|

Riff 4.
|----------------|----------------|----------------|----------------|
|----2---5---2---|--------2-------|----------------|----------------|
|3---------------|0---3-------3---|----0---3---0---|----------------|
|----------------|----------------|1---------------|3---3---3---3---|

Riff 5.
|----------------|----------------|----------------|----------------|
|----------------|----------------|----------------|----------------|
|----0---3---0---|----2---5---2---|----0---3---0---|----2---5---2---|
|1---------------|3---------------|1---------------|3---------------|

Bass fill 1.
|--------7---6-----------|----------------|
|----5-----------5-------|----------------|
|3-------------------3---|0---0---0-------|
|------------------------|------------3---|

Bass fill 2.
|----------------|----------------|
|----------------|----------------|
|----------------|----------------|
|1---1---1---1---|3---3---3---3---|

Riff 1  2x
Riff 2  2x
Riff 3  1x
Riff 4  1x
Riff 2  2x
Riff 3  1x
Riff 4  1x
Riff 5  1x
Fill 1  1x
Riff 5  1x
Fill 1  1x
Fill 2  1x
Riff 2  2x
Riff 3  1x
Riff 4  1x
Riff 5  1x
Fill 1  2x
Show more