• Song:

    A Vava Inouva

  • Artist:

    Idir

  • Album:

    Identit├ęs / A vava ino...

sponsored links
Source: http://www.partoch.com/forum/post_1514772,vrai+tab+idir+a+vava+inouva.html
By: pLaTnOrm


--7------7-7-----------------------------3-2-3-3-2-0-3-2---0----------------------------------|
----8-10-------10-10-10-10-8-7-5-3---3-3-----------------3------------------------------------|
----------------------------------------------------------------------------------------------|
--------------------------------------------------------------------2-0-2------2-0-2----------|
------------------------------------------------------------------2----------2----------------|
--------------------------------------------------------------0-3---------0-3-----------------|

--3-3-3-5-7-5-3-2-0--------3-2-3-3-2-0-3-2---0--3-3-3-5-7-5-3-2-0--------3-2-3-3-2-0-3-2---0--|
--------------------3--3-3-----------------3----------------------3--3-3-----------------3----|
----------------------------------------------------------------------------------------------|
----------------------------------------------------------------------------------------------|
----------------------------------------------------------------------------------------------|
----------------------------------------------------------------------------------------------|

--0-0-0-0-0-3-5-3-2-0--3-5-3-2-0--2-2-2-2-2-0--2-3-2-0---0--0-0-2-3-0-------------------------|
-------------------------------------------------------3--------------------------------------|
----------------------------------------------------------------------------------------------|
----------------------------------------------------------------------------------------------|
----------------------------------------------------------------------------------------------|
----------------------------------------------------------------------------------------------|

--0-0-0-0-0-3-5-3-2-0--3-5-3-2-0-2-2-2-2-2-0--2-3-2-0---0--0-0-2-3-0--------------------------|
------------------------------------------------------3---------------------------------------|
----------------------------------------------------------------------------------------------|
----------------------------------------------------------------------------------------------|
----------------------------------------------------------------------------------------------|
----------------------------------------------------------------------------------------------|

--3-3-3-5-7-5-3-2-0--------3-2-3-3-2-0-3-2---0--0-0-2-3--3-3-3-3-2--2-2-2-2-2--------3-2-0----|
--------------------3--3-3----------------3-----------------------------------3--3-3----------|
----------------------------------------------------------------------------------------------|
----------------------------------------------------------------------------------------------|
----------------------------------------------------------------------------------------------|
----------------------------------------------------------------------------------------------|

--0--0-0-2-3--3-3-3-3-2--2-2-2-2-2--------3-2-0--3-3-5-7-7-7-7-7-5-5-3-3-3-2-2-2-5-3-2-0------|
-----------------------------------3--3-3-----------------------------------------------------|
----------------------------------------------------------------------------------------------|
----------------------------------------------------------------------------------------------|
----------------------------------------------------------------------------------------------|
----------------------------------------------------------------------------------------------|

--3-3-5-7-7-7-7-7-5-5-3-3-3-2-2-2-5-3-2-0--2-2-2-5--3-3-2--2-2-2-2-0--------------------------|
---------------------------------------------------------------------3------------------------|
----------------------------------------------------------------------------------------------|
----------------------------------------------------------------------------------------------|
----------------------------------------------------------------------------------------------|
----------------------------------------------------------------------------------------------|

--2-2-2-5-3-3-2--2---0--0-0-0-0-0-3-5-3-2-0--3-5-3-2-0-2-2-2-2-2-0--2-3-2-0---0-0-2-3-0-------|
-------------------3--------------------------------------------------------3-----------------|
----------------------------------------------------------------------------------------------|
----------------------------------------------------------------------------------------------|
----------------------------------------------------------------------------------------------|
----------------------------------------------------------------------------------------------|

--0--0-0-0-0-0-3-5-3-2-0-3-5-3-2-0-2-2-2-2-2-0--2-3-2-0---0-0-2-3-0---------------------------|
--------------------------------------------------------3-------------------------------------|
----------------------------------------------------------------------------------------------|
----------------------------------------------------------------------------------------------|
----------------------------------------------------------------------------------------------|
----------------------------------------------------------------------------------------------|

--3-3-3-5-7-5-3-2-0--------3-2-3-3-2-0-3-2---0--0--0-0-2-3--3-3-3-3-2--2-2-2-2-2--------3-2-0-|
--------------------3--3-3-----------------3-------------------------------------3--3-3-------|
----------------------------------------------------------------------------------------------|
----------------------------------------------------------------------------------------------|
----------------------------------------------------------------------------------------------|
----------------------------------------------------------------------------------------------|

--0--0-0-2-3--3-3-3-3-2--2-2-2-2-2--------3-2-0-3-3-5-7-7-7-7-7-5-5-3-3-3-2-2-2-5-3-2-0-------|
-----------------------------------3--3-3-----------------------------------------------------|
----------------------------------------------------------------------------------------------|
----------------------------------------------------------------------------------------------|
----------------------------------------------------------------------------------------------|
----------------------------------------------------------------------------------------------|

--3-3-5-7-7-7-7-7-5-5-3-3-3-2-2-2-5-3-2-0--2-2-2-5-3-3-2-0--2-2-2-5-3-3-2--2-2-2-2-0----------|
-------------------------------------------------------------------------------------3--------|
----------------------------------------------------------------------------------------------|
----------------------------------------------------------------------------------------------|
----------------------------------------------------------------------------------------------|
----------------------------------------------------------------------------------------------|

--2-2-2-5-3-3-2--2---0--0-0-0-0-0-3-5-3-2-0--3-5-3-2-0-2-2-2-2-2-0--2-3-2-0---0--0-0-2-3-0----|
-------------------3--------------------------------------------------------3-----------------|
----------------------------------------------------------------------------------------------|
----------------------------------------------------------------------------------------------|
----------------------------------------------------------------------------------------------|
----------------------------------------------------------------------------------------------|

--0--0-0-0-0-0-3-5-3-2-0--3-5-3-2-0-2-2-2-2-0--2-3-2-0---0--0-0-2-3-0-------------------------|
-------------------------------------------------------3--------------------------------------|
----------------------------------------------------------------------------------------------|
----------------------------------------------------------------------------------------------|
----------------------------------------------------------------------------------------------|
----------------------------------------------------------------------------------------------|

--3-3-3-5-7-5-3-2-0--------3-2-3-3-2-0-3-2----0--3-3-3-5-7-5-3-2-0--------3-2-3-3-2-0-3-2---0-|
--------------------3--3-3-----------------3-----------------------3--3-3-----------------3---|
----------------------------------------------------------------------------------------------|
----------------------------------------------------------------------------------------------|
----------------------------------------------------------------------------------------------|
----------------------------------------------------------------------------------------------|

--3-3-3-5-7-5-3-2-0--------3-2-3-3-2-0-3-2----0--3-3-3-5-7-5-3-2-0--------3-2-3-3-2-0-3-2---0-|
--------------------3--3-3-----------------3-----------------------3--3-3-----------------3---|
----------------------------------------------------------------------------------------------|
----------------------------------------------------------------------------------------------|
----------------------------------------------------------------------------------------------|
----------------------------------------------------------------------------------------------|
Show more
sponsored links
sponsored links