• Song:

    Cloud Connected

  • Artist:

    In Flames

  • Album:

    2004-06-12: Sweden Rock...

->tabbed by james paul( profile name: Gx2381 )

->written by in flames 
tuned down to "c" (4 flats)


rate this tab please...

REST HERE DIGITAL INTRO:
|-------------|-------------|-------------|---------------|
|-------------|-------------|-------------|---------------|
|-------------|-------------|-------------|---------------|
|-------------|-------------|-------------|---------------|

first verse 0:10
|-------------|-------------|-------------|---------------|
|-------------|-------------|-------------|---------------|
|-------------|-------------|-------------|---------------|
|-0--0---0--0-|-(0)------0--|-0--0---0--0-|-(0)-----------|


second verse 0:15
|-----------------|-----------------|-----------------|-----------------|
|-----------------|-----------------|-----------------|-----------------|
|-7-----5-7---10--|-9---5-----2---5-|-7-----5-7---10--|-9---5-----2---5-|
|---0-0-----0---0-|---0---0--0--0--0|---0-0-----0---0-|---0---0--0--0--0|

first verse 0:36
|-------------|
|-------------|
|-------------|
|-0--0---0--0-|

third verse 0:37
|-------------|
|-------------|
|-------------|
|-0-0-0-0-0-0-|

second verse 0:46
|-----------------|-----------------|-----------------|-----------------|
|-----------------|-----------------|-----------------|-----------------|
|-7-----5-7---10--|-9---5----2----5-|-7-----5-7---10--|-9---5----2----5-|
|---0-0-----0---0-|---0---0-----0--0|---0-0-----0---0-|---0---0-----0--0|

fill 1 0:51
|-------------|---------------|
|-------------|---------------|
|-7---------5-|-7-----------3-|
|-------------|---------------|

first verse 0:56
|-------------|
|-------------|
|-------------|
|-0--0---0--0-|

third verse 0:58
|-------------|
|-------------|
|-------------|
|-0-0-0-0-0-0-|
 
Chorus 1:05
|-----------------|-----------------|-----------------|
|-----------------|-----------------|-7-----5-7---5---|
|-7-----5-7---10--|-9---5---2---5---|---0-0---------5-|
|---0-0-----0---0-|---0---0---0---0-|-----------------|

|-----------------|-----------------|-----------------|
|-------------5---|-4---0-----------|-7-----5-7---5---|
|-7-----5-7-------|-------------5---|---0-0-----------|
|---0-0-----0---0-|---0---0-7-0---0-|-----------------|


Post Chorus 1:15
|-------------||-------------||-------------|
|-------------||-------------||-------------|
|-------------||-------------||-------------|
|-3-3-3-3-3-3-||-7-7-7-7-7-7-||-5-5-5-5-5-5-|

SHORT REST...  1:35

first verse 1:37
|-------------|
|-------------|
|-------------|
|-0--0---0--0-|

first verse 1:42
|-------------|-------------|-------------|---------------|
|-------------|-------------|-------------|---------------|
|-------------|-------------|-------------|---------------|
|-0--0---0--0-|-(0)------0--|-0--0---0--0-|-(0)-----------|

second verse 1:47
|-----------------|-----------------|-----------------|-----------------|
|-----------------|-----------------|-----------------|-----------------|
|-7-----5-7---10--|-9---5-----2---5-|-7-----5-7---10--|-9---5-----2---5-|
|---0-0-----0---0-|---0---0--0--0--0|---0-0-----0---0-|---0---0--0--0--0|

fill 1 1:52
|-------------|---------------|
|-------------|---------------|
|-7---------5-|-7-----------3-|
|-------------|---------------|

first verse 1:57
|-------------|
|-------------|
|-------------|
|-0--0---0--0-|

first verse 2:02
|-------------|-------------|-------------|---------------|
|-------------|-------------|-------------|---------------|
|-------------|-------------|-------------|---------------|
|-0--0---0--0-|-(0)------0--|-0--0---0--0-|-(0)-----------|

Bridge 2:07
|-------------------------|
|-------------------------|
|-3----7----5--------2----|
|-------------------------|

Post Chorus 2:11
|-------------||-------------||-------------|
|-------------||-------------||-------------|
|-------------||-------------||-------------|
|-3-3-3-3-3-3-||-7-7-7-7-7-7-||-5-5-5-5-5-5-|

first verse 2:32
|-------------|-------------|-------------|---------------|
|-------------|-------------|-------------|---------------|
|-------------|-------------|-------------|---------------|
|-0--0---0--0-|-(0)------0--|-0--0---0--0-|-(0)-----------|

Bridge 2:42
|-------------------------|
|-------------------------|
|-3----7----5--------2----|
|-------------------------|

Post Chorus 3:03
|-------------||-------------||-------------|
|-------------||-------------||-------------|
|-------------||-------------||-------------|
|-3-3-3-3-3-3-||-7-7-7-7-7-7-||-5-5-5-5-5-5-|

second verse 3:22
|-----------------|-----------------|-----------------|-----------------|
|-----------------|-----------------|-----------------|-----------------|
|-7-----5-7---10--|-9---5-----2---5-|-7-----5-7---10--|-9---5-----2---5-|
|---0-0-----0---0-|---0---0--0--0--0|---0-0-----0---0-|---0---0--0--0--0|

first verse 3:32
|-------------|-------------|-------------|---------------|
|-------------|-------------|-------------|---------------|
|-------------|-------------|-------------|---------------|
|-0--0---0--0-|-(0)------0--|-0--0---0--0-|-(0)-----------|
Show more