• Song:

    Cloud Connected

  • Artist:

    In Flames

  • Album:

    2004-06-12: Sweden Rock...

Tuning: C
Intro/verse

--------------------
--------------------
--------------------
--2--2---2-2-------
--2--2---2-2-------
--0--0---0-0-------
Main little riff thing play this a bunch of times in the beginning and after each verse
-------------------------------
-------------------------------
-9---7-9------------7----
-7---5-7-10-9-5-----5-----
---0-------------0-0-------

After first verse
-------------------------------
-------------------------------
-9---7-9------------7--- x2 the add        --9-7-2-
-7---5-7-10-9-5-----5----                  --7-5-2-
---0-------------0-0------------         --------0-7-7-7-7

After second part of the first verse

--------------------------------------
--------------------------------------
-9---7-9------------7----------------5
-7---5-7-10-9-5-----5-----7----5-7-5-3
---0-------------0-0------5-5-5----3--

Chorus (let ring out)

?i've come to realize!?
--------------------------------
--------------------------------
-5-/-9-------5-/9-/-7--------
-5-/-9-------5-/9-/-7--------
-3-/-7-------3-/7-/-5--------

After second verse

-------------------------------
-------------------------------
-9---7-9------------7--- x2 the add        --9-7-2-
-7---5-7-10-9-5-----5----                  --7-5-2-
---0-------------0-0------------         --------0-7-7-7-7
  then play this
-------------------------------
-------------------------------
-9---7-9------------7--- x2 the add then play       
-7---5-7-10-9-5-----5----                      -10-9-7-5-
---0-------------0-0------------               -8--7-5-3-   


im still working on the 2 solos so just work with this right now and for the solos im open for all suggestions 

Break down
--------------------------
--------------------------
-5--9--7--4-----------------
-5--9--7--4-----------------
-3--7--5--2---------------
---------------------------

Then go back into the chorus, then play that little main riff fill, then exit with the intro
I hope this a good tab I?ll post the solos a soon as I figure them out hope u enjoy, LATER!


Tabbed by Steve Williams e-mail: xmethod@msn.com
Show more