• Song:

    Come Clarity

  • Artist:

    In Flames

  • Album:

    Come Clarity

Come Clarity! 

Intro: 
E|-------0-------------1p-0-----------------------------------0-1h---| 
B|-----3---3---------3------3---------1-----1---------------3--------| 
G|---2-------2-----3----------3-----0-----0---0-------0---2----------| 
D|-0-----------0-0--------------0-3-----2-------2---0---0------------| 
A|------------------------------------------------3------------------| 
E|-------------------------------------------------------------------| 


E|-------0-------------1p-0-------------------------------------1----| 
B|-----3---3---------3------3---------1-----1-----------------1------| 
G|---2-------2-----3----------3-----0-----0---0-------0-----3--------| 
D|-0-----------0-0--------------0-3-----2-------2---0-----3----------| 
A|------------------------------------------------3-----1------------| 
E|-------------------------------------------------------------------| 



Chorus: 
E|-----------------------------------------------------------------| 
B|-----------------------------------------------------------------| 
G|---7-7-7-7-7-7-7-7-7-7---7-7-7-7-7---10-10-10-10-10--------------| 
D|---7-7-7-7-7-7-7-7-7-7---8-8-8-8-8---10-10-10-10-10--------------| 
A|---5-5-5-5-5-5-5-5-5-5---5-5-5-5-5----8--8--8--8--8--------------| 
E|-----------------------------------------------------------------| 


E|-----------------------------------------------------------------| 
B|-----------------------------------------------------------------| 
G|---5-5-5-5-5-5-5-5-5-5----------------3-3-3-3-3-3----------------| 
D|---5-5-5-5-5-5-5-5-5-5---5-5-5-5-5----3-3-3-3-3-3----------------| 
A|---3-3-3-3-3-3-3-3-3-3---5-5-5-5-5----1-1-1-1-1-1----------------| 
E|-------------------------3-3-3-3-3-------------------------------|
Show more