• Song:

    Dial 595-Escape

  • Artist:

    In Flames

  • Album:

    Soundtrack to Your Esca...

Artist: In Flames
Album: Soundtrack To Your Escape
Song: Dial 595-Escape
Tabbed by: Andrew (theglorifiedmalcontent)

Tuning: 4 half-steps down, drop A# - A#, F, A#, D#

------------= Key =------------
h  hammer on        p  pull off
~  let ring         *  stop string

Chorus (0:00)
D#|----------------------------------------------------------------|
A#|----------------------------------------------------------------| x2
F |--------0--1--3-------------------------0--1--3-1-1-1-1---------|
A#|0-0-0-0---------0-0-0-0-3--5--5-0-0-0-0-----------------3--5--5-|

Verse I (0:17)
D#|----------------------------------------------------------------|
A#|----------------------------------------------------------------| x2
F |----------------------1---0---1-----------------------1---------|
A#|0-0*----0-0*----0-0-0-----------0-0*----0-0*----0-0-0-----3---5-|

Chorus (0:25) x1
Verse I (0:33) x2

Prechorus I (0:42)
D#|----------------------------------------------------------------|
A#|----------------------------------------------------------------|
F |----------------0000000000000000--------------------------------|
A#|3333333333333333----------------33333333333333335555555555555555|
  |                                                                | x1
D#|----------------------------------------------------------------|
A#|----------------------------------------------------------------|
F |----------------0000000000000000--------------------------------|
A#|3333333333333333----------------3333333333333333555555555*------|

Chorus (0:58) x2

Verse II (1:15)
D#|----------------------------------------------------------------|
A#|----------------------------------------------------------------|
F |----------------------------------------------------------------|
A#|0-0*----------------------------0-0*----------------0-0*----0-0*|
  |                                                                | x2
D#|----------------------------------------------------------------|
A#|----------------------------------------------------------------|
F |-----------------------------------------------1---0-1-3~-------|
A#|0-0*----------------------------0-0*----------------------------|

Small Fill (1:31)
D#|-----------------|
A#|3---2p0----------| x1
F |--------3~-------|
A#|-----------------|

Prechorus II (1:33) x1
D#|----------------------------------------------------------------|
A#|----------------------------------------------------------------| x2
F |----------------0000000000000000--------------------------------|
A#|3333333333333333----------------33333333333333335555555555555555|

Chorus (1:49) x2

Bridge (2:06)
D#|----------------------------------------------------------------|
A#|----------------------------------------------------------------| x1
F |----5-----------1-------3-----------5-----------1---0-----------|
A#|0-0---------0-0-----0-0---------0-0---------0-0-------3h5-------|

Guitar Solo (2:11)
D#|----------------------------------------------------------------|
A#|----------------------------------------------------------------| x2
F |----------------3-------5---------------------------------------|
A#|3---3---*-3---3-----------------3---3---*-3---3h5-------0-------|

Bridge (2:19) x2
Prechorus I (2:27) x1
Rest (2:44)
Chorus (2:45) x4

Outro (3:21)
D#|----------------------------------------------------------------|
A#|----------------------------------------------------------------| x1
F |1-1-1-1---------1-1-1-1---------1-1-1-1-------------------------|
A#|--------3--5--5---------3--5--5---------3--5--5-0000~~~-~~-~----|
Show more