• Song:

    Egonomic

  • Artist:

    In Flames

  • Album:

    Reroute to Remain: Four...

Artist: In Flames
Album: Reroute To Remain
Song: Egonomic
Tabbed by: Andrew (theglorifiedmalcontent)

Tuning: 4 half-steps down - C, F, A#, D#

------------= Key =------------
/  slide up         *  stop string

A note about this tab: I think a 5-string is used
in some parts and so I've changed it a bit; but
I've tried to make it as accurate as possible. Enjoy!

Intro (0:00)                             Small Fill (0:05)
D#|--------------------------------|     D#|----------------|
A#|00000000000000000000000000000000| x2  A#|----------------| x1
F |--------------------------------|     F |----------------|
C |--------------------------------|     C |0-0000--0-0000--|

Intro (0:07) x2

Verse I (0:11)
D#|--------------------------------|
A#|000000000000000-----------------| x3
F |--------------------------------|
C |---------------3-3333--3-3333---|

Verse II (0:23)
D#|--------------------------------|
A#|000000000000000-----------------| x1
F |------------------------3-------|
C |---------------3-3333-----------|

Intro (0:27) x2
Verse I (0:32) x1
Verse II (0:36) x1

Chorus (0:40)
D#|----------------------------------------------------------------|
A#|----------------------------------------------------------------|
F |---------------3-333333333333335-5555555555555551111111111111111|
C |1-1111111111111-------------------------------------------------|
  |                                                                | x1
D#|----------------------------------------------------------------|
A#|----------------------------------------------------------------|
F |---------------3-333333333333335-55555555555555511111111//////17|
C |1-1111111111111-------------------------------------------------|

Verse I (0:57) x1
Verse II (1:01) x1
Chorus (1:05) x1

(This part is really hard to hear; I'm pretty sure it just
follows the guitar. This is it the best that I can get from it.)

Bridge I (1:22) (hammer on or pull off all notes when possible)
D#|---02---2------5----2---2-----------2---2------5----2---2-------|
A#|023--023-020230--023-023-0202302-023-023-020230--023-023-0202302| x2
F |----------------------------------------------------------------|
C |----------------------------------------------------------------|

Bridge II (1:39)
D#|----------------------------------------------------------------|
A#|-------2--2-2----------2--2-2-----------------------------------| x2
F |2-2-2----------2--2-2----------2--2-2------------------0--0-0---|
C |---------------------------------------2--2-2--3--3-3-----------|

Bridge I (1:55) x1
Small Fill (2:03) x1
Chorus (2:06) x1
Intro (2:22) x4
Small Fill (2:30) x1
Show more