• Song:

    Egonomic

  • Artist:

    In Flames

  • Album:

    Reroute to Remain: Four...

Standard Tuning


G||------|------|------|------|------||-------|------|------|------|------|
D||------|------|------|------|------||*------|------|------|------|------|
A||------|------|------|------|------||*------|------|------|------|------|
E||------|------|------|------|------||-------|------|------|------|------|


                                                                 
------|------|------|------|------||-------|------|------|------|
------|------|------|------|------||*------|------|------|------|
------|------|------|------|------||*------|------|------|------|
------|------|------|------|------||-------|------|------|------|


                                                                  
--------------------------------|--------------------------------|
--------------------------------|--------------------------------|
--4--4-4-4-4-4-4--4-4-4-4-4-4-4-|--------------------------------|
--------------------------------|--4--4-4-4-4-4-4--4-4-4-4-4-4-4-|


                                                              
-------------------------------|-----------------------------|
-------------------------------|-----------------------------|
-------------------------------|---------------------------4-|
--6--6-6-6-6-6-6--6-6-6-6-6-4--|--2--2-2-2-2-2-2-1---2--4----|


                                                                  
--------------------------------|--------------------------------|
--------------------------------|--------------------------------|
--4--4-4-4-4-4-4--4-4-4-4-4-4-4-|--------------------------------|
--------------------------------|--4--4-4-4-4-4-4--4-4-4-4-4-4-4-|


                                                                              
-------------------------------|-----------------------------|-------||------|
-------------------------------|-----------------------------|------*||------|
-------------------------------|---------------------------4-|------*||------|
--6--6-6-6-6-6-6--6-6-6-6-6-4--|--2--2-2-2-2-2-2-1---2--4----|-------||------|


                                                                             
------|------|------|------|------|------|------|------|------|------|------|
------|------|------|------|------|------|------|------|------|------|------|
------|------|------|------|------|------|------|------|------|------|------|
------|------|------|------|------|------|------|------|------|------|------|


                                                                      
------|------|------|------|------|------|------|------|------|------|
------|------|------|------|------|------|------|------|------|------|
------|------|------|------|------|------|------|------|------|------|
------|------|------|------|------|------|------|------|------|------|


                                                                  
--------------------------------|--------------------------------|
--------------------------------|--------------------------------|
--4--4-4-4-4-4-4--4-4-4-4-4-4-4-|--------------------------------|
--------------------------------|--4--4-4-4-4-4-4--4-4-4-4-4-4-4-|


                                                              
-------------------------------|-----------------------------|
-------------------------------|-----------------------------|
-------------------------------|---------------------------4-|
--6--6-6-6-6-6-6--6-6-6-6-6-4--|--2--2-2-2-2-2-2-1---2--4----|


                                                                  
--------------------------------|--------------------------------|
--------------------------------|--------------------------------|
--4--4-4-4-4-4-4--4-4-4-4-4-4-4-|--------------------------------|
--------------------------------|--4--4-4-4-4-4-4--4-4-4-4-4-4-4-|


                                                                            
-------------------------------|-----------------------------|------|------|
-------------------------------|-----------------------------|------|------|
-------------------------------|---------------------------4-|------|------|
--6--6-6-6-6-6-6--6-6-6-6-6-4--|--2--2-2-2-2-2-2-1---2--4----|------|------|


               
------|------||
------|------||
------|------||
------|------||
Show more