IN FLAMES "The Jester's Dance"
of the album "The Jester Race"
Tabbed by: Dr.Vulgar

Tuning: C (tune every string down two steps from standard tuning)

.=staccato note
~=let note ring

Riff A (0:00)
|--------------------------------------------------------------------|
|--------------------------------------------------------------------|
|--------------------------------------------------------------------|
|--5---5-5-5---5-5-5---5-5-5---5-51---1-1-1---1-1/3---3-3-3---3-3---| x4

Riff B (0:22)
|--------------------------------------------------------------------|
|--------------------------------------------------------------------|
|--------------------------------------------------------------------|
|--5---5-5-5---5-51---1-1-1---1-1/3---3-3-3---3-3-3---3-3-3----3-3--| x4

Riff C (0:43)
|-------------------------------------------------------|
|-------------------------------------------------------|
|--0~--3~---------------------3~--0~-----------2---2-3--|
|----------0~--1~-----1~--3~-------------5-3-5---5------|

Riff D (0:50)
|-------------------------------------|
|-------------------------------------|
|-------------------------------------|
|-555555555555555511111111/33333333--| x2

Riff A x2 (1:00)

Riff E (1:11)
|-------------------------------------------|
|-------------------------------------------|
|-0~----------------------------------------|
|-----3~--0~--1~-----------1~--3/8~--5~-----| x4

Riff A x? (1:33)
At this time play Riff A until the song fades out, I think it's about 5-6 times.
Or else, you (and you're band?) can come up with your own ending.
Show more