• Song:

    Only For The Weak

  • Artist:

    In Flames

  • Album:

    Live in Jonkoping

ARTIST: IN FLAMES
TITLE: ONLY FOR THE WEAK
ALBUM: CLAYMAN
TAB AUTHOR: MORDECAI666
E-MAIL ADDRESS: DYSFUNCTIONAL870@HOTMAIL.COM

~ = VIBRATO
h = HAMMERON
p = PULL-OFF
/ = SLIDE DOWN
 = SLIDE UP
P.M. = PALM MUTE

I WANTED TO MAKE THIS TAB AS ORGANIZED AS POSSIBLE, SO I ADDED MEASURE NUMBERS ABOVE THE
TABS, AND MARKED REPEATED MEASURES WITH THE USUAL "REPEAT THIS SECTION" MARKERS USED IN
STANDARD MUSIC NOTATION.  TRIPLETS ARE MARKED AS HAMMERON-PULL-OFF OR PULL-OFF-PULL-OFF,
SO YOU DONT GET TOO CONFUSED WITH ALL THE NUMBERS ABOVE AND BELOW THE TABS.I HAVE TABBED
ALL THREE GUITARS, BASS, AND KEYBOARD PARTS, FIGURE OUT THE PERCUSSION YOURSELFTHIS SONG IS
PLAYED IN OPEN C TUNING (LOW TO HIGH) C-F-A#/Bb-D#/Eb-G-C, ON ALL THREE GUITARS, AND C-F-A-C
ON BASS.  E-MAIL ME WITH ANY COMMENTS OR SUGGESTIONS. HAVE FUN!!!


RIFF 1
GUITAR 1
   1                  2                 3                 4                   5
C-||------------------|-----------------|-----------------|------------------||-----|
G-||------------------|-----------------|-----------------|------------------||-----|
Eb||.-----------------|-----------------|-----------------|-----------------.||-----|
Bb||.-----------------|-5-5-5-5-7-7-7-7-|-----------------|---------7-7-7-7-.||-----|
F-||--2-2-2-2-7-7-7-7-|-3-3-3-3-5-5-5-5-|-2-2-2-2-7-7-7-7-|-5-5-5-5-5-5-5-5--||--3--|
C-||--0-0-0-0-5-5-5-5-|-----------------|-0-0-0-0-5-5-5-5-|-3-3-3-3----------||-----|

GUITAR 2
   1                  2                 3                 4          5
C-||------------------|-----------------|-----------------|---------||-----|
G-||------------------|-----------------|-----------------|---------||-----|
Eb||.---4---2-4-5-----|-4-2-----2-------|---4---2---------|--------.||-----|
Bb||.-5---5-----------|-----5-5---4-----|-5---5---5-4-2---|-4------.||-----|
F-||------------------|-------------5---|-----------------|---5-----||--7--|
C-||------------------|-----------------|-----------------|---------||-----|

GUITAR 3
   1      2      3      4        5
C-||------|------|------|-------||-----|
G-||------|------|------|-------||-----|
Eb||.-----|------|------|------.||-----|
Bb||.-----|------|------|------.||-----|
F-||------|------|------|-------||-----|
C-||------|------|------|-------||-----|

BASS GUITAR
   1                  2                 3                 4                   5
C-||------------------|-----------------|-----------------|------------------||-----|
A-||.-----------------|-----------------|-----------------|-----------------.||-----|
F-||.-----------------|-3-3-3-3-5-5-5-5-|-----------------|---------5-5-5-5-.||-----|
C-||--0-0-0-0-5-5-5-5-|-----------------|-0-0-0-0-5-5-5-5-|-3-3-3-3----------||-----|

KEYBOARD (TRANSPOSED FOR A SIX STRING GUITAR)
   1                  2                 3                 4          5
C-||------------------|-----------------|-----------------|---------||-----|
G-||------------------|-----------------|-----------------|---------||-----|
Eb||.---4---2-4-5-----|-4-2-----2-------|---4---2---------|--------.||-----|
Bb||.-5---5-----------|-----5-5---4-----|-5---5---5-4-2---|-4------.||-----|
F-||------------------|-------------5---|-----------------|---5-----||--7--|
D-||------------------|-----------------|-----------------|---------||-----|


RIFF 2
GUITAR 1
  6                     7                       8                       9
C-|---------------------|-----------------------|-----------------------|-----------------------|
G-|---------------------|-----------------------|-----------------------|-----------------------|
Eb|---------------------|-----------------------|-----------------------|-----------------------|
Bb|-----------------4h5-|---5h7-------------4h5-|---4h5-------------4h5-|---5h7-----------------|
F-|---2---2---2---------|---------2---2---------|---------2---2---------|---------2---2---------|
C-|-0-0-0-0-0-0-0-0-----|-0-----0-0-0-0-0-0-----|-0-----0-0-0-0-0-0-----|-0-----0-0-0-0-x-x-x-x-|
P.M..   .   .   . .       .     .   .   . .       .     .   .   . .       .     .   .

GUITAR 2
  6                     7                     8                     9
C-|---------------------|---------------------|---------------------|---------------------|
G-|---------------------|---------------------|---------------------|---------------------|
Eb|---------------------|---------------------|---------------------|---------------------|
Bb|---------------------|---5-----------------|---7-----------------|---5-----------------|
F-|---2---2---2-----5h7-|---3---2---2-----5h7-|---5---2---2-----5h7-|---3---2---2---------|
C-|-0-0-0-0-0-0-0-0-----|-0---0-0-0-0-0-0-----|-0---0-0-0-0-0-0-----|-0---0-0-0-0-x-x-x-x-|
P.M..   .   .   . .       .   .   .   . .       .   .   .   . .       .   .   .

GUITAR 3
  6      7      8      9
C-|------|------|------|------|
G-|------|------|------|------|
Eb|------|------|------|------|
Bb|------|------|------|------|
F-|------|------|------|------|
C-|------|------|------|------|

BASS GUITAR (same rhythm as guitar 1 & 2)
  6                     7                     8                     9
C-|---------------------|---------------------|---------------------|---------------------|
A-|---------------------|---------------------|---------------------|---------------------|
F-|---------------------|---------------------|---------------------|---------------------|
C-|-0-0-0-0-0-0-0-0-0-0-|-0-0-0-0-0-0-0-0-0-0-|-0-0-0-0-0-0-0-0-0-0-|-0-0-0-0-0-0-x-x-x-x-|

KEYBOARD
  6      7      8      9
C-|------|------|------|------|
G-|------|------|------|------|
Eb|------|------|------|------|
Bb|------|------|------|------|
F-|------|------|------|------|
D-|------|------|------|------|


RIFF 3
GUITAR 1
  10                     11     12                     13     14                     15     16                     17
C-|----------------------|------|----------------------|------|----------------------|------|----------------------|------|
G-|----------------------|------|----------------------|------|----------------------|------|----------------------|------|
Eb|-12-11h12p11-9---11-7-|------|-12-11h12p11-9---7-11-|------|-12-11h12p11-9---11-7-|------|-12-11h12p11-9---7-11-|------|
Bb|----------------------|------|----------------------|------|----------------------|------|----------------------|------|
F-|----------------------|------|----------------------|------|----------------------|------|----------------------|------|
C-|----------------------|------|----------------------|------|----------------------|------|----------------------|------|

GUITAR 2
  10                11                12                13                14               15     16               17
C-|-----------------|-----------------|-----------------|-----------------|----------------|------|----------------|------|
G-|-----------------|-----------------|-----------------|-----------------|----------------|------|----------------|------|
Eb|-----------------|-----------------|-----------------|-----------------|----------------|------|----------------|------|
Bb|-----------------|-----------------|-----------------|---4---4---4---4-|-9-7h9p7-5--7-5-|------|-9-7h9p7-5--5-7-|------|
F-|---2---2---2---2-|---3---3---3---3-|---2---2---2---2-|-2-2-2-2-2-2-2-2-|----------------|------|----------------|------|
C-|-0-0-0-0-0-0-0-0-|-5-5-5-5-5-5-5-5-|-0-0-0-0-0-0-0-0-|-----------------|----------------|------|----------------|------|
P.M..   .   .   .     .   .   .   .     .   .   .   .     .   .   .   .

GUITAR 3
  10     11     12     13     14                15                16                17
C-|------|------|------|------|-----------------|-----------------|-----------------|-----------------|
G-|------|------|------|------|-----------------|-----------------|-----------------|-----------------|
Eb|------|------|------|------|-----------------|-----------------|-----------------|-----------------|
Bb|------|------|------|------|-----------------|-----------------|-----------------|---4---4---4---4-|
F-|------|------|------|------|---2---2---2---2-|---3---3---3---3-|---2---2---2---2-|-2-2-2-2-2-2-2-2-|
C-|------|------|------|------|-0-0-0-0-0-0-0-0-|-5-5-5-5-5-5-5-5-|-0-0-0-0-0-0-0-0-|-----------------|
P.M.                            .   .   .   .     .   .   .   .     .   .   .   .     .   .   .   .

BASS GUITAR
  10                11                12                13                14                
C-|-----------------|-----------------|-----------------|-----------------|-----------------|
A-|-----------------|-----------------|-----------------|-----------------|-----------------|
F-|-----------------|-----------------|-----------------|-2-2-2-2-2-2-2-2-|-----------------|
C-|-0-0-0-0-0-0-0-0-|-3-3-3-3-3-3-3-3-|-0-0-0-0-0-0-0-0-|-----------------|-0-0-0-0-0-0-0-0-|

  15                16                17
C-|-----------------|-----------------|-----------------|
A-|-----------------|-----------------|-----------------|
F-|-----------------|-----------------|-2-2-2-2-2-2-2-2-|
C-|-3-3-3-3-3-3-3-3-|-0-0-0-0-0-0-0-0-|-----------------|

KEYBOARD
  10     11     12     13     14     15     16     17
C-|------|------|------|------|------|------|------|------|
G-|------|------|------|------|------|------|------|------|
Eb|------|------|------|------|------|------|------|------|
Bb|------|------|------|------|------|------|------|------|
F-|------|------|------|------|------|------|------|------|
D-|------|------|------|------|------|------|------|------|


RIFF 4
GUITAR 1
  18                19                      20                21
C-|-----------------|-----------------------|-----------------|-----------------------|
G-|-----------------|-----------------------|-----------------|-----------------------|
Eb|-----------------|-----------------------|-----------------|-----------------------|
Bb|-----------------|---4---4------5------7-|-----------------|---4---4------5------7-|
F-|---2---2---5---5-|-2-2-2-2--3-3-3--5-5-5-|---2---2---5---5-|-2-2-2-2--3-3-3--5-5-5-|
C-|-0-0-0-0-3-3-3-3-|-----------------------|-0-0-0-0-3-3-3-3-|-----------------------|
P.M..   .   .   .     .   .    . .    . .     .   .   .   .     .   .    . .    . .

GUITAR 2
  18                19                      20                21
C-|-----------------|-----------------------|-----------------|-----------------------|
G-|-----------------|-----------------------|-----------------|-----------------------|
Eb|-----------------|-----------------------|-----------------|-----------------------|
Bb|-----------------|---4---4------5------7-|-----------------|---4---4------5------7-|
F-|---2---2---5---5-|-2-2-2-2--3-3-3--5-5-5-|---2---2---5---5-|-2-2-2-2--3-3-3--5-5-5-|
C-|-0-0-0-0-3-3-3-3-|-----------------------|-0-0-0-0-3-3-3-3-|-----------------------|
P.M..   .   .   .     .   .    . .    . .     .   .   .   .     .   .    . .    . .

GUITAR 3
  18     19     20     21     
C-|------|------|------|------|
G-|------|------|------|------|
Eb|------|------|------|------|
Bb|------|------|------|------|
F-|------|------|------|------|
C-|------|------|------|------|

BASS GUITAR
  18                19                      20                21
C-|-----------------|-----------------------|-----------------|-----------------------|
A-|-----------------|-----------------------|-----------------|-----------------------|
F-|-----------------|-2-2-2-2--2-2-2--2-2-2-|-----------------|-2-2-2-2--3-3-3--5-5-5-|
C-|-0-0-0-0-3-3-3-3-|-----------------------|-0-0-0-0-3-3-3-3-|-----------------------|

KEYBOARD
  18     19     20     21     
C-|------|------|------|------|
G-|------|------|------|------|
Eb|------|------|------|------|
Bb|------|------|------|------|
F-|------|------|------|------|
D-|------|------|------|------|


RIFF 5
GUITAR 1
  22                       23           24                        25           26     
C-|------------------------|------------|-------------------------|------------|-----------------------------|
G-|------------------------|------------|-------------------------|------------|-----------------------------|
Eb|-------9-12-9h11p9------|---7-9-7-4--|--------9-12-9h11p9------|---7-9-7-4--|--------11-12-11h12p11-------|
Bb|----12-------------12-9-|------------|-5---12-------------12-9-|------------|-5---14----------------14----|
F-|------------------------|------------|-------------------------|------------|--------------------------14-|
C-|------------------------|------------|-------------------------|------------|-----------------------------|

  27               28                              29
C-|----------------|-------------------------------|---------------|
G-|----------------|-------------------------------|---------------|
Eb|---14-16-14-11--|-12-------11-12-11h12p11-------|---14-16-14-11-|
Bb|----------------|-------14----------------14----|---------------|
F-|----------------|----------------------------14-|---------------|
C-|----------------|-------------------------------|---------------|

GUITAR 2
  22                       23              24                        25              26
C-|------------------------|---------------|-------------------------|---------------|-----------------------------|
G-|------------------------|---------------|-------------------------|---------------|--------17-19-17h19p17-------|
Eb|-------9-12-9h11p9------|---11-12-11-7--|-9------9-12-9h11p9------|---11-12-11-7--|-9---19----------------19-16-|
Bb|----12-------------12-9-|---------------|-----12-------------12-9-|---------------|-----------------------------|
F-|------------------------|---------------|-------------------------|---------------|-----------------------------|
C-|------------------------|---------------|-------------------------|---------------|-----------------------------|

  27               28                             29
C-|----------------|------------------------------|---------------|
G-|----------------|---------17-19-17h19p17-------|---------------|
Eb|---17-19-17-14--|-16---19----------------19-16-|---17-19-17-14-|
Bb|----------------|------------------------------|---------------|
F-|----------------|------------------------------|---------------|
C-|----------------|------------------------------|---------------|

GUITAR 3
  22                       23           24                       25           26                       27
C-|------------------------|------------|------------------------|------------|------------------------|------------|
G-|------------------------|------------|------------------------|------------|------------------------|------------|
Eb|------------------------|------------|------------------------|------------|------------------------|------------|
Bb|-5----------------------|---7--------|-5----------------------|---4--------|-------5----------------|---7--------|
F-|-3-----2--------------5-|---5--------|-3-----2--------------5-|---2--------|-2-----3--------------5-|---5--------|
C-|-------0--------------3-|------------|-------0--------------3-|------------|-0--------------------3-|------------|

  28                       29
C-|------------------------|------------|
G-|------------------------|------------|
Eb|------------------------|------------|
Bb|-5----------------------|---7--------|
F-|-3-----2--------------5-|---5--------|
C-|-------0--------------3-|------------|

BASS GUITAR
  22                23                24                25                26                  27
C-|-----------------|-----------------|-----------------|-----------------|-------------------|-----------------|
A-|-----------------|-----------------|-----------------|-----------------|-------------------|-----------------|
F-|-3-3-3-3---------|---------5-5-5-5-|-----------------|---------2-2-2-2-|---------3-3-3-3---|---------5-5-5-5-|
C-|---------0-0-0-3-|-3-3-3-3---------|-3-3-3-3-0-0-0-3-|-3-3-3-3---------|-0-0-0-0---------3-|-3-3-3-3---------|

  28                29
C-|-----------------|-----------------|
A-|-----------------|-----------------|
F-|-3-3-3-3---------|---------5-5-5-5-|
C-|---------0-0-0-3-|-3-3-3-3---------|

KEYBOARD
  22     23     24     25     26     27     28     29
C-|------|------|------|------|------|------|------|------|
G-|------|------|------|------|------|------|------|------|
Eb|------|------|------|------|------|------|------|------|
Bb|------|------|------|------|------|------|------|------|
F-|------|------|------|------|------|------|------|------|
D-|------|------|------|------|------|------|------|------|


BACK TO RIFF 1
GUITAR 1
   30                 31                32                33                  34
C-||------------------|-----------------|-----------------|------------------||-----|
G-||------------------|-----------------|-----------------|------------------||-----|
Eb||.-----------------|-----------------|-----------------|-----------------.||-----|
Bb||.-----------------|-5-5-5-5-7-7-7-7-|-----------------|---------7-7-7-7-.||-----|
F-||--2-2-2-2-7-7-7-7-|-3-3-3-3-5-5-5-5-|-2-2-2-2-7-7-7-7-|-5-5-5-5-5-5-5-5--||--3--|
C-||--0-0-0-0-5-5-5-5-|-----------------|-0-0-0-0-5-5-5-5-|-3-3-3-3----------||-----|

GUITAR 2
   30                 31                32                33         34
C-||------------------|-----------------|-----------------|---------||-----|
G-||------------------|-----------------|-----------------|---------||-----|
Eb||.---4---2-4-5-----|-4-2-----2-------|---4---2---------|--------.||-----|
Bb||.-5---5-----------|-----5-5---4-----|-5---5---5-4-2---|-4------.||-----|
F-||------------------|-------------5---|-----------------|---5-----||--7--|
C-||------------------|-----------------|-----------------|---------||-----|

GUITAR 3
   30     31     32     33       34
C-||------|------|------|-------||-----|
G-||------|------|------|-------||-----|
Eb||.-----|------|------|------.||-----|
Bb||.-----|------|------|------.||-----|
F-||------|------|------|-------||-----|
C-||------|------|------|-------||-----|

BASS GUITAR
   30                 31                32                33                  34
C-||------------------|-----------------|-----------------|------------------||-----|
A-||.-----------------|-----------------|-----------------|-----------------.||-----|
F-||.-----------------|-3-3-3-3-5-5-5-5-|-----------------|---------5-5-5-5-.||-----|
C-||--0-0-0-0-5-5-5-5-|-----------------|-0-0-0-0-5-5-5-5-|-3-3-3-3----------||-----|

KEYBOARD
   30                 31                32                33         34
C-||------------------|-----------------|-----------------|---------||-----|
G-||------------------|-----------------|-----------------|---------||-----|
Eb||.---4---2-4-5-----|-4-2-----2-------|---4---2---------|--------.||-----|
Bb||.-5---5-----------|-----5-5---4-----|-5---5---5-4-2---|-4------.||-----|
F-||------------------|-------------5---|-----------------|---5-----||--7--|
D-||------------------|-----------------|-----------------|---------||-----|


BACK TO RIFF 3
GUITAR 1
  35                     36     37                     38     39                     40     41                     42
C-|----------------------|------|----------------------|------|----------------------|------|----------------------|------|
G-|----------------------|------|----------------------|------|----------------------|------|----------------------|------|
Eb|-12-11h12p11-9---11-7-|------|-12-11h12p11-9---7-11-|------|-12-11h12p11-9---11-7-|------|-12-11h12p11-9---7-11-|------|
Bb|----------------------|------|----------------------|------|----------------------|------|----------------------|------|
F-|----------------------|------|----------------------|------|----------------------|------|----------------------|------|
C-|----------------------|------|----------------------|------|----------------------|------|----------------------|------|

GUITAR 2
  35                36                37                38                39               40     41               42
C-|-----------------|-----------------|-----------------|-----------------|----------------|------|----------------|------|
G-|-----------------|-----------------|-----------------|-----------------|----------------|------|----------------|------|
Eb|-----------------|-----------------|-----------------|-----------------|----------------|------|----------------|------|
Bb|-----------------|-----------------|-----------------|---4---4---4---4-|-9-7h9p7-5--7-5-|------|-9-7h9p7-5--5-7-|------|
F-|---2---2---2---2-|---3---3---3---3-|---2---2---2---2-|-2-2-2-2-2-2-2-2-|----------------|------|----------------|------|
C-|-0-0-0-0-0-0-0-0-|-5-5-5-5-5-5-5-5-|-0-0-0-0-0-0-0-0-|-----------------|----------------|------|----------------|------|
P.M..   .   .   .     .   .   .   .     .   .   .   .     .   .   .   .

GUITAR 3
  35     36     37     38     39                40                41                42
C-|------|------|------|------|-----------------|-----------------|-----------------|-----------------|
G-|------|------|------|------|-----------------|-----------------|-----------------|-----------------|
Eb|------|------|------|------|-----------------|-----------------|-----------------|-----------------|
Bb|------|------|------|------|-----------------|-----------------|-----------------|---4---4---4---4-|
F-|------|------|------|------|---2---2---2---2-|---3---3---3---3-|---2---2---2---2-|-2-2-2-2-2-2-2-2-|
C-|------|------|------|------|-0-0-0-0-0-0-0-0-|-5-5-5-5-5-5-5-5-|-0-0-0-0-0-0-0-0-|-----------------|
P.M.                            .   .   .   .     .   .   .   .     .   .   .   .     .   .   .   .

BASS GUITAR
  35                36                37                38                39
C-|-----------------|-----------------|-----------------|-----------------|-----------------|
A-|-----------------|-----------------|-----------------|-----------------|-----------------|
F-|-----------------|-----------------|-----------------|-2-2-2-2-2-2-2-2-|-----------------|
C-|-0-0-0-0-0-0-0-0-|-3-3-3-3-3-3-3-3-|-0-0-0-0-0-0-0-0-|-----------------|-0-0-0-0-0-0-0-0-|

  40                41                42
C-|-----------------|-----------------|-----------------|
A-|-----------------|-----------------|-----------------|
F-|-----------------|-----------------|-2-2-2-2-2-2-2-2-|
C-|-3-3-3-3-3-3-3-3-|-0-0-0-0-0-0-0---|-----------------|

KEYBOARD
  35     36     37     38     39     40     41     42
C-|------|------|------|------|------|------|------|------|
G-|------|------|------|------|------|------|------|------|
Eb|------|------|------|------|------|------|------|------|
Bb|------|------|------|------|------|------|------|------|
F-|------|------|------|------|------|------|------|------|
D-|------|------|------|------|------|------|------|------|


BACK TO RIFF 4
GUITAR 1
  43                44                      45                46
C-|-----------------|-----------------------|-----------------|-----------------------|
G-|-----------------|-----------------------|-----------------|-----------------------|
Eb|-----------------|-----------------------|-----------------|-----------------------|
Bb|-----------------|---4---4------5------7-|-----------------|---4---4------5------7-|
F-|---2---2---5---5-|-2-2-2-2--3-3-3--5-5-5-|---2---2---5---5-|-2-2-2-2--3-3-3--5-5-5-|
C-|-0-0-0-0-3-3-3-3-|-----------------------|-0-0-0-0-3-3-3-3-|-----------------------|
P.M..   .   .   .     .   .    . .    . .     .   .   .   .     .   .    . .    . .

GUITAR 2
  43                44                      45                46
C-|-----------------|-----------------------|-----------------|-----------------------|
G-|-----------------|-----------------------|-----------------|-----------------------|
Eb|-----------------|-----------------------|-----------------|-----------------------|
Bb|-----------------|---4---4------5------7-|-----------------|---4---4------5------7-|
F-|---2---2---5---5-|-2-2-2-2--3-3-3--5-5-5-|---2---2---5---5-|-2-2-2-2--3-3-3--5-5-5-|
C-|-0-0-0-0-3-3-3-3-|-----------------------|-0-0-0-0-3-3-3-3-|-----------------------|
P.M..   .   .   .     .   .    . .    . .     .   .   .   .     .   .    . .    . .


GUITAR 3
  43     44     45     46
C-|------|------|------|------|
G-|------|------|------|------|
Eb|------|------|------|------|
Bb|------|------|------|------|
F-|------|------|------|------|
C-|------|------|------|------|

BASS GUITAR
  43                44                      45                46
C-|-----------------|-----------------------|-----------------|-----------------------|
A-|-----------------|-----------------------|-----------------|-----------------------|
F-|-----------------|-2-2-2-2--2-2-2--2-2-2-|-----------------|-2-2-2-2--3-3-3--5-5-5-|
C-|-0-0-0-0-3-3-3-3-|-----------------------|-0-0-0-0-3-3-3-3-|-----------------------|

KEYBOARD 
  43     44     45     46
C-|------|------|------|------|
G-|------|------|------|------|
Eb|------|------|------|------|
Bb|------|------|------|------|
F-|------|------|------|------|
D-|------|------|------|------|



BACK TO RIFF 5
GUITAR 1
  47                       48           49                        50           51
C-|------------------------|------------|-------------------------|------------|-----------------------------|
G-|------------------------|------------|-------------------------|------------|-----------------------------|
Eb|-------9-12-9h11p9------|---7-9-7-4--|--------9-12-9h11p9------|---7-9-7-4--|--------11-12-11h12p11-------|
Bb|----12-------------12-9-|------------|-5---12-------------12-9-|------------|-5---14----------------14----|
F-|------------------------|------------|-------------------------|------------|--------------------------14-|
C-|------------------------|------------|-------------------------|------------|-----------------------------|

  52               53                              54
C-|----------------|-------------------------------|---------------|
G-|----------------|-------------------------------|---------------|
Eb|---14-16-14-11--|-12-------11-12-11h12p11-------|---14-16-14-11-|
Bb|----------------|-------14----------------14----|---------------|
F-|----------------|----------------------------14-|---------------|
C-|----------------|-------------------------------|---------------|

GUITAR 2
  47                       48              49                        50              51
C-|------------------------|---------------|-------------------------|---------------|-----------------------------|
G-|------------------------|---------------|-------------------------|---------------|--------17-19-17h19p17-------|
Eb|-------9-12-9h11p9------|---11-12-11-7--|-9------9-12-9h11p9------|---11-12-11-7--|-9---19----------------19-16-|
Bb|----12-------------12-9-|---------------|-----12-------------12-9-|---------------|-----------------------------|
F-|------------------------|---------------|-------------------------|---------------|-----------------------------|
C-|------------------------|---------------|-------------------------|---------------|-----------------------------|

  52               53                             54
C-|----------------|------------------------------|---------------|
G-|----------------|---------17-19-17h19p17-------|---------------|
Eb|---17-19-17-14--|-16---19----------------19-16-|---17-19-17-14-|
Bb|----------------|------------------------------|---------------|
F-|----------------|------------------------------|---------------|
C-|----------------|------------------------------|---------------|

GUITAR 3
  47                       48           49                       50           51                       52
C-|------------------------|------------|------------------------|------------|------------------------|------------|
G-|------------------------|------------|------------------------|------------|------------------------|------------|
Eb|------------------------|------------|------------------------|------------|------------------------|------------|
Bb|-5----------------------|---7--------|-5----------------------|---4--------|-------5----------------|---7--------|
F-|-3-----2--------------5-|---5--------|-3-----2--------------5-|---2--------|-2-----3--------------5-|---5--------|
C-|-------0--------------3-|------------|-------0--------------3-|------------|-0--------------------3-|------------|

  53                       54
C-|------------------------|------------|
G-|------------------------|------------|
Eb|------------------------|------------|
Bb|-5----------------------|---7--------|
F-|-3-----2--------------5-|---5--------|
C-|-------0--------------3-|------------|

BASS GUITAR
  47                48                49                50                51                  52
C-|-----------------|-----------------|-----------------|-----------------|-------------------|-----------------|
A-|-----------------|-----------------|-----------------|-----------------|-------------------|-----------------|
F-|-3-3-3-3---------|---------5-5-5-5-|-----------------|---------2-2-2-2-|---------3-3-3-3---|---------5-5-5-5-|
C-|---------0-0-0-3-|-3-3-3-3---------|-3-3-3-3-0-0-0-3-|-3-3-3-3---------|-0-0-0-0---------3-|-3-3-3-3---------|

  53                54
C-|-----------------|-----------------|
A-|-----------------|-----------------|
F-|-3-3-3-3---------|---------5-5-5-5-|
C-|---------0-0-0-3-|-3-3-3-3---------|

KEYBOARD
  47     48     49     50     51     52     53     54
C-|------|------|------|------|------|------|------|------|
G-|------|------|------|------|------|------|------|------|
Eb|------|------|------|------|------|------|------|------|
Bb|------|------|------|------|------|------|------|------|
F-|------|------|------|------|------|------|------|------|
D-|------|------|------|------|------|------|------|------|



BACK TO RIFF 1
GUITAR 1
   55                 56                57                58 
C-||------------------|-----------------|-----------------|------------------||x3
G-||------------------|-----------------|-----------------|------------------||
Eb||.-----------------|-----------------|-----------------|-----------------.||
Bb||.-----------------|-5-5-5-5-7-7-7-7-|-----------------|---------7-7-7-7-.||
F-||--2-2-2-2-7-7-7-7-|-3-3-3-3-5-5-5-5-|-2-2-2-2-7-7-7-7-|-5-5-5-5-5-5-5-5--||
C-||--0-0-0-0-5-5-5-5-|-----------------|-0-0-0-0-5-5-5-5-|-3-3-3-3----------||

GUITAR 2
   55                 56                57                58
C-||------------------|-----------------|-----------------|---------||x3
G-||------------------|-----------------|-----------------|---------||
Eb||.---4---2-4-5-----|-4-2-----2-------|---4---2---------|--------.||
Bb||.-5---5-----------|-----5-5---4-----|-5---5---5-4-2---|-4------.||
F-||------------------|-------------5---|-----------------|---5-----||
C-||------------------|-----------------|-----------------|---------||

GUITAR 3
   55     56     57     58     
C-||------|------|------|-------||x3
G-||------|------|------|-------||
Eb||.-----|------|------|------.||
Bb||.-----|------|------|------.||
F-||------|------|------|-------||
C-||------|------|------|-------||

BASS GUITAR
   55                 56                57                58                  
C-||------------------|-----------------|-----------------|------------------||x3
A-||.-----------------|-----------------|-----------------|-----------------.||
F-||.-----------------|-3-3-3-3-5-5-5-5-|-----------------|---------5-5-5-5-.||
C-||--0-0-0-0-5-5-5-5-|-----------------|-0-0-0-0-5-5-5-5-|-3-3-3-3----------||

KEYBOARD
   55                 56                57                58
C-||------------------|-----------------|-----------------|---------||x3
G-||------------------|-----------------|-----------------|---------||
Eb||.---4---2-4-5-----|-4-2-----2-------|---4---2---------|--------.||
Bb||.-5---5-----------|-----5-5---4-----|-5---5---5-4-2---|-4------.||
F-||------------------|-------------5---|-----------------|---5-----||
D-||------------------|-----------------|-----------------|---------||


RIFF 6 - SOLO & RHYTHM
GUITAR 1
  59                60                61      62                  63
C-|-----------------|-----------------|-------|-------------------|----10---8-7-5-7-|
G-|-----------------|-----------------|-------|-------------------|--8----8---------|
Eb|-----------------|-----------------|-------|-------------------|-----------------|
Bb|-----------------|-----------------|-------|-4--------5------7-|-----------------|
F-|---2---2---2---2-|---5---5---5---5-|-2--5--|-2----3-3-3--5-5-5-|-----------------|
C-|-0-0-0-0-0-0-0-0-|-3-3-3-3-3-3-3-3-|-0--3--|-------------------|-----------------|
P.M..   .   .   .     .   .   .   .                  . .    . .

  64                    65                                66
C-|-----10----12-10-8-7-|--12-15-17-1915--15-19/2219-15-|----19-15----15-19-15----20p19p17-------------------------|
G-|--12----12-----------|----------------17---------------|-15-------17----------17---------20p19p17-----------------|
Eb|---------------------|---------------------------------|-----------------------------------------19p17p16---------|
Bb|---------------------|---------------------------------|-------------------------------------------------17p16p14-|
F-|---------------------|---------------------------------|----------------------------------------------------------|
C-|---------------------|---------------------------------|----------------------------------------------------------|

  67                        68                             69                        70
C-|-15-------15/19----19/20-|----20/22-15-17-15h17p15------|-15-------15-------------|-------------|
G-|----12-13-------17-------|-20---------------------19-17-|----12-13----15-13-12-15-|-15-13-12----|
Eb|-------------------------|------------------------------|-------------------------|----------14-|
Bb|-------------------------|------------------------------|-------------------------|-------------|
F-|-------------------------|------------------------------|-------------------------|-------------|
C-|-------------------------|------------------------------|-------------------------|-------------|

  71                          72                             73                        74
C-|---15-------15/19----19/20-|----20/22-15-17-15h17p15------|-15-------15-19----19-20-|-20bf-19-17-22bf-|
G-|------13-12-------17-------|-20---------------------19-17-|----12-13-------17-------|-----------------|
Eb|---------------------------|------------------------------|-------------------------|-----------------|
Bb|---------------------------|------------------------------|-------------------------|-----------------|
F-|---------------------------|------------------------------|-------------------------|-----------------|
C-|---------------------------|------------------------------|-------------------------|-----------------|

GUITAR 2
  59                60                            61                    62        63                64
C-|-----------------|-----------------------------|---------------------|---------|-----------------|-----------------------------|
G-|---12---10-8-7-8~|------12----13-12h13p12-10-8-|----12---10-8-7-7h8p7|-5-3/5-5~|---12---10-8-7-8~|------12----13-12h13p12-10-8-|
Eb|-9----9----------|---12----12------------------|--9----9-------------|---------|-9----9----------|---12----12------------------|
Bb|-----------------|-----------------------------|---------------------|---------|-----------------|-----------------------------|
F-|-----------------|-----------------------------|---------------------|---------|-----------------|-----------------------------|
C-|-----------------|-----------------------------|---------------------|---------|-----------------|-----------------------------|

  65     66     67     68     69     70     71     72     73     74
C-|------|------|------|------|------|------|------|------|------|------|
G-|------|------|------|------|------|------|------|------|------|------|
Eb|------|------|------|------|------|------|------|------|------|------|
Bb|------|------|------|------|------|------|------|------|------|------|
F-|------|------|------|------|------|------|------|------|------|------|
C-|------|------|------|------|------|------|------|------|------|------|

GUITAR 3
  59     60     61     62     63                64                65      66                  67                       68
C-|------|------|------|------|-----------------|-----------------|-------|-------------------|------------------------|------------|
G-|------|------|------|------|-----------------|-----------------|-------|-------------------|------------------------|------------|
Eb|------|------|------|------|-----------------|-----------------|-------|-------------------|------------------------|------------|
Bb|------|------|------|------|-----------------|-----------------|-------|-4--------5------7-|-5----------------------|---7--------|
F-|------|------|------|------|---2---2---2---2-|---5---5---5---5-|-2--5--|-2----3-3-3--5-5-5-|-3-----2--------------5-|---5--------|
C-|------|------|------|------|-0-0-0-0-0-0-0-0-|-3-3-3-3-3-3-3-3-|-0--3--|-------------------|-------0--------------3-|------------|
P.M.                            .   .   .   .     .   .   .   .                  . .    . .

  69                       70           71                       72           73                       74
C-|------------------------|------------|------------------------|------------|------------------------|------------|
G-|------------------------|------------|------------------------|------------|------------------------|------------|
Eb|------------------------|------------|------------------------|------------|------------------------|------------|
Bb|-5----------------------|---4--------|-5----------------------|---7--------|-------5----------------|---4--------|
F-|-3-----2--------------5-|---2--------|-3-----2--------------5-|---5--------|-2-----3--------------5-|---2--------|
C-|-------0--------------3-|------------|-------0--------------3-|------------|-0--------------------3-|------------|


BASS GUITAR
  59                60                61      62               63                64                65      66
C-|-----------------|-----------------|-------|----------------|-----------------|-----------------|-------|----------------|
A-|-----------------|-----------------|-------|----------------|-----------------|-----------------|-------|----------------|
F-|-----------------|-----------------|-------|-2--3-3-3-5-5-5-|-----------------|-----------------|-------|-2--3-3-3-5-5-5-|
C-|-0-0-0-0-0-0-0-0-|-3-3-3-3-3-3-3-3-|-0--3--|----------------|-0-0-0-0-0-0-0-0-|-3-3-3-3-3-3-3-3-|-0--3--|----------------|

  67         68     69        70     71        72     73        74
C-|----------|------|---------|------|---------|------|---------|------|
A-|----------|------|---------|------|---------|------|---------|------|
F-|-3--------|---5--|-3-------|---2--|-3-------|---5--|-3-------|---2--|
C-|----0--3--|------|----0--3-|------|----0--3-|------|----0--3-|------|

KEYBOARD SAMPLE (AFTER SOLO)
  75                                76
C-|---------------------------------|---------------------------------|
G-|---------------------------------|---------------------------------|
Eb|---------------------------------|---------------------------------|
Bb|---------------------------------|---------------------------------|
F-|---------------------------------|---------------------------------|
D-|-0-0-0-0-0-0-0-0-0-0-0-0-0-0-0-0-|-0-0-0-0-0-0-0-0-0-0-0-0-0-0-0-0-|


RIFF 7 (AFTER KEYBOARD TRANSITION)
GUITAR 1
   77                 78                79                80
C-||------------------|-----------------|-----------------|------------------||x5
G-||------------------|-----------------|-----------------|------------------||
Eb||.-----------------|-----------------|-----------------|-----------------.||
Bb||.---------4-4-4-4-|-7-7-7-7---------|---------4-4-4-4-|-----------------.||
F-||--4-4-4-4-2-2-2-2-|-5-5-5-5-0-0-0-0-|-4-4-4-4-2-2-2-2-|-7-7-7-7-2-2-2-2--||
C-||--2-2-2-2---------|---------2-2-2-2-|-2-2-2-2---------|-5-5-5-5-0-0-0-0--||

GUITAR 2
   77                 78              79                  80
C-||------------------|---------------|-------------------|---------||x5
G-||------------------|---------------|-------------------|---------||
Eb||.---6---4-6-7-----|-6-4-----4-----|-----6---4---------|--------.||
Bb||.-7---7-----------|-----7-7---6---|---7---7---7-6-4---|-6------.||
F-||------------------|-------------7-|-------------------|---7-----||
C-||------------------|---------------|-------------------|---------||

GUITAR 3
   77     78     79     80
C-||------|------|------|-------||x5
G-||------|------|------|-------||
Eb||.-----|------|------|------.||
Bb||.-----|------|------|------.||
F-||------|------|------|-------||
C-||------|------|------|-------||

BASS GUITAR
   77                 78                79                80
C-||------------------|-----------------|-----------------|------------------||x5
A-||.-----------------|-----------------|-----------------|-----------------.||
F-||.---------2-2-2-2-|-5-5-5-5---------|---------2-2-2-2-|-----------------.||
C-||--2-2-2-2---------|---------0-0-0-0-|-2-2-2-2---------|-5-5-5-5-0-0-0-0--||

KEYBOARD
   77                 78              79                  80
C-||------------------|---------------|-------------------|---------||x5
G-||------------------|---------------|-------------------|---------||
Eb||.---6---4-6-7-----|-6-4-----4-----|-----6---4---------|--------.||
Bb||.-7---7-----------|-----7-7---6---|---7---7---7-6-4---|-6------.||
F-||------------------|-------------7-|-------------------|---7-----||
D-||------------------|---------------|-------------------|---------||

RIFF 8 - OUTRO
GUITAR 1
  81                82                83                84
C-|-----------------|-----------------|-----------------|-----------------|
G-|-----------------|-----------------|-----------------|-----------------|
Eb|-----------------|-----------------|-----------------|-----------------|
Bb|---------4-4-4-4-|-7-7-7-7---------|---------4-4-4-4-|-----------------|
F-|-4-4-4-4-2-2-2-2-|-5-5-5-5-0-0-0-0-|-4-4-4-4-2-2-2-2-|-7-7-7-7-2-2-2-2-|
C-|-2-2-2-2---------|---------2-2-2-2-|-2-2-2-2---------|-5-5-5-5-0-0-0-0-|

  85                86                87                88                89
C-|-----------------|-----------------|-----------------|-----------------|------|
G-|-----------------|-----------------|-----------------|-----------------|------|
Eb|-----------------|-----------------|-----------------|-----------------|------|
Bb|---------4-4-4-4-|-7-7-7-7---------|---------4-4-4-4-|-----------------|------|
F-|-4-4-4-4-2-2-2-2-|-5-5-5-5-0-0-0-0-|-4-4-4-4-2-2-2-2-|-7-7-7-7-2-2-2-2-|------|
C-|-2-2-2-2---------|---------2-2-2-2-|-2-2-2-2---------|-5-5-5-5-0-0-0-0-|------|

GUITAR 2
   81                 82              83                  84
C-||------------------|---------------|-------------------|--------|
G-||------------------|---------------|-------------------|--------|
Eb||.---6---4-6-7-----|-6-4-----4-----|-----6---4---------|--------|
Bb||.-7---7-----------|-----7-7---6---|---7---7---7-6-4---|-6------|
F-||------------------|-------------7-|-------------------|---7----|
C-||------------------|---------------|-------------------|--------|

   85                 86              87                  88       89
C-||------------------|---------------|-------------------|--------|------|
G-||------------------|---------------|-------------------|--------|------|
Eb||.---6---4-6-7-----|-6-4-----4-----|-----6---4---------|--------|------|
Bb||.-7---7-----------|-----7-7---6---|---7---7---7-6-4---|-6------|------|
F-||------------------|-------------7-|-------------------|---7----|------|
C-||------------------|---------------|-------------------|--------|------|

GUITAR 3
  81     82     83     84
C-|------|------|------|------|
G-|------|------|------|------|
Eb|------|------|------|------|
Bb|------|------|------|------|
F-|------|------|------|------|
C-|------|------|------|------|

  85     86     87     88     89
C-|------|------|------|------|------|
G-|------|------|------|------|------|
Eb|------|------|------|------|------|
Bb|------|------|------|------|------|
F-|------|------|------|------|------|
C-|------|------|------|------|------|

BASS GUITAR
  81                82                83                84
C-|-----------------|-----------------|-----------------|-----------------|
A-|-----------------|-----------------|-----------------|-----------------|
F-|---------2-2-2-2-|-5-5-5-5---------|---------2-2-2-2-|-----------------|
C-|-2-2-2-2---------|---------0-0-0-0-|-2-2-2-2---------|-5-5-5-5-0-0-0-0-|

  85                86                87                88                89
C-|-----------------|-----------------|-----------------|-----------------|------|
A-|-----------------|-----------------|-----------------|-----------------|------|
F-|---------2-2-2-2-|-5-5-5-5---------|---------2-2-2-2-|-----------------|------|
C-|-2-2-2-2---------|---------0-0-0-0-|-2-2-2-2---------|-5-5-5-5-0-0-0-0-|------|

KEYBOARD
  81                82              83                  84       
C-|-----------------|---------------|-------------------|--------|
G-|-----------------|---------------|-------------------|--------|
Eb|---6---4-6-7-----|-6-4-----4-----|-----6---4---------|--------|
Bb|-7---7-----------|-----7-7---6---|---7---7---7-6-4---|-6------|
F-|-----------------|-------------7-|-------------------|---7----|
D-|-----------------|---------------|-------------------|--------|

  85                86              87                  88       89
C-|-----------------|---------------|-------------------|--------|------|
G-|-----------------|---------------|-------------------|--------|------|
Eb|---6---4-6-7-----|-6-4-----4-----|-----6---4---------|--------|------|
Bb|-7---7-----------|-----7-7---6---|---7---7---7-6-4---|-6------|------|
F-|-----------------|-------------7-|-------------------|---7----|------|
D-|-----------------|---------------|-------------------|--------|------|


STRUCTURE
RIFF 1 - INTRO x2
RIFF 2 x1
RIFF 3 - VERSE x1
RIFF 4 - POST VERSE x1
RIFF 5 - PRECHORUS x1
RIFF 1 - CHORUS x2
RIFF 3 - VERSE x1
RIFF 4 - POST VERSEx1
RIFF 5 - PRECHORUS x1
RIFF 1 - CHORUS/PRE-SOLO x4
RIFF 6 - SOLO/INTERLUDE
RIFF 7 - POST SOLO/CHORUS x5
RIFF 8 - OUTRO/FINAL CHORUS x1

LYRICS
[VERSE]
I can't tolerate your sadness
cause it's me you're drowning
I won't allow any hapiness
cause everytime you laugh, I feel so guilty

"I blame the needs that you feed
cause selfish eyes would not see"

[PRECHORUS]
Am I forced to have any regret?
I've become the lie, beutiful and free
In my righteous own mind
I adore and preach the insanity you gave

[CHORUS]
Sell me the infection, it's only for the weak
No need for sympathy, the misery that is me
No need for sympathy, it's only for the weak
On bleeding knees I accept my fate

[VERSE]
I've lost the ability to paint the clouds
cause it's me you're draining
I'm stuck in this slow-motion dark day
cause everytime you run, I fall behind

"Far away is a place where I hide
the truth that have to be locked away"

[PRECHORUS]
And so I hear my voice again
The tale of the bitter man, here I am
Shake the silence and hear what it says
The tranquil pride that become the lie

[CHORUS x2]

[SOLO/INTERLUDE]

[OUTRO/CHORUS x3]
Show more