• Song:

    Only For The Weak

  • Artist:

    In Flames

  • Album:

    Live in Jonkoping

Intro/Chorus I (0:00)
|-----------------------------------------------------------------|
|-----------------------------------------------------------------|
|-------------------------1-1-1-1-------------------------1-1-1-1-|
|---------1-1-1-1-4-4-4-4-----------------1-1-1-1-----------------|
|-1-1-1-1-------------------------1-1-1-1---------4-4-4-4---------|x2 (End
with a high C the last time)

Pre-Verse I (0:21)
|-------------------------------------|
|-------------------------------------|
|-------------------------------------|
|-------------------------------------| x2
|-1-1-1-1-1-1-111---1-1-1-1-1-1-111---|

Verse I (0:30)
|-----------------------------------------------------------------|
|-----------------------------------------------------------------|
|-----------------------------------------------------------------|
|-------------------------------------------------0-0-0-0-0-0-0-0-| x2
|-1-1-1-1-1-1-1-1-4-4-4-4-4-4-4-4-1-1-1-1-1-1-1-1-----------------|

Pre-Verse II (0:48)
|------------------------------------|
|------------------------------------|
|-------------------------------111--|
|-----------------3-3-3-3--444-------| x2
|-1-1-1-1-4-4-4-4--------------------|
			   ...  ...

Verse II (0:57)
|---------------------------------|
|--------------------------------:|
|------------------1~------------:|
|-4~------------------------------| x4
|------1~----4~-------------------|

Chorus I x2 (1:16)
Verse I x2 (1:36)
Pre-Verse II x2 (1:55)
Verse II x4 (2:04)
Chorus I x4 (2:22)

Solo (2:58)
|-------------------------------------------------------------------|
|-------------------------------------------------------------------|
|---------------------------------------------------------------111-|
|-------------------------------------------------3-3-3-3--444------|
|-1-1-1-1-1-1-1-1-4-4-4-4-4-4-4-4-1-1-1-1-1-1-1-1-------------------| x2
							   ...  ...

Verse II x4 (3:16)

(3:35)
|-----------------|
|-Some-Special-FX-|
|------(REST)-----|
|-----------------|
|-----------------|

Chorus II x4 (3:40)
|-----------------------------------------------------------------|
|-----------------------------------------------------------------|
|-----------------1-1-1-1-3-3-3-3---------------------------------|
|---------3-3-3-3-------------------------3-3-3-3-1-1-1-1---------|
|-3-3-3-3-------------------------3-3-3-3-----------------1-1-1-1-| x?
Show more