• Song:

    Reroute To Remain

  • Artist:

    In Flames

  • Album:

    Live in Jonkoping

yeah a bunch of people request this song so i decided to tab part of it out, i'll do the rest later i've been busy with shows and recording and Ep. check out my band at www.pocketfox.net yup so enjoy this it may be incorrect but i'll spiff it up later. so yeah as always e-mail me with requests @ lifeispeachy171@aol.com thats preaty much it

Gtr I (C F Bb Eb G C) - 'Untitled'
 4/4
  Gtr I
|------------------------------------|
|------------------------------------|
|------------------------------------|
|------------------------------------|
|------------------------------------|
|-0-0-8-7-0-5-3-0-0-0-0-0-0-0-0-0----|


|--------------------------------|
|--------------------------------|
|--------------------------------|
|---------------------5-7-4------|
|-----------7-5-5-5-7-------5----|
|-0-0-8-7-0----------------------|


|----------------------------|
|----------------------------|
|----------------------------|
|-9-9-9-9-9-9-9-5-5-5-4-7----|
|-7-7-7-7-7-7-7-3-3-3-2-5----|
|----------------------------|


|--------------------------------------------------------------|
|----------------------------------------12-10-----------------|
|---9-11-12-11-11-9--------------------9-------12-11-9---------|
|-9----------------------------------9-----------------12-8----|
|--------------------7-9-10-12-10-9----------------------------|
|--------------------------------------------------------------|
Show more