• Song:

    Reroute To Remain

  • Artist:

    In Flames

  • Album:

    Live in Jonkoping

Artist: In Flames
Album: Reroute To Remain
Song: Reroute To Remain
Tabbed by: Andrew (theglorifiedmalcontent)

Tuning: 4 half-steps down - C, F, A#, D#

------------= Key =------------
h  hammer on        p  pull off
  slide down       *  stop string

The Intro and Bridges II and IV are a bit difficult - I've tried to write
it the easiest way possible to play. Once you've got the basic pattern down
it should just all fall into place. Enjoy!

Intro (0:09)
D#|----------------------------------------------------------------|
A#|--------------------------------------------2p0-----------------| x4
F |----3p2-----------------------------3p2-------------------------|
C |3p0-------0h5p3---0-0-0-000-000-3p0-------0---------------------|

Bridge I (0:30)
D#|--------------------------------|
A#|2-------------------------------| x1
F |----------------3-3-3-2---------|
C |----0-0-0-0-0-0-----------3-----|

Preverse (0:33)
D#|----------------------------------------------------------------|
A#|----------------------------------------------------------------| x1
F |--------3-------4-------5---------------3-------5-------3*------|
C |0-------------------------------0-------------------------------|

Verse I (0:43)
D#|-----------------------------------------------------------------------|
A#|-----------------------------------------------------------------------| x2
F |------------------------------0h2p0--------------------3-----0---------|
C |000000000000000000000000h3p0h3-----h3h20000000000000000----------------|

Verse II (1:04)                          Prechorus (1:14)
D#|--------------------------------|     D#|--------------------------------|
A#|--------------------------------| x2  A#|2--0------------2--0--------0---| x2
F |----------------------------0-02|     F |------2---------------2---------|
C |2222222222222222222222222222-3--|     C |---------0000000---------3------|

Chorus (1:25)
D#|----------------------------------------------------------------|
A#|--------0-------------------------------0-----------------------|
F |----------------0-------------------------------0---------------|
C |3-------------------------------3-------------------------------|
  |                                                                | x1
D#|----------------------------------------------------------------|
A#|--------0-------------------------------0-----------------------|
F |----------------0-------------------------------3-------5-------|
C |3-------------------------------3-------------------------------|

Bridge II (1:49)
D#|----------------------------------------------------------------|
A#|----------------------------------------------------------------| x1
F |----32-------------32-------------32-------------------------|
C |3p0-------0h5p3---0-------0h3h5p3p0-------0h5p3---0-0-0-000-000-|

Verse I (1:54) x1
Verse II (2:04) x2
Prechorus (2:15) x2
Chorus (2:25) x1

Bridge III (2:49)
D#|----------------------------------------------------------------|
A#|----------------------------------------------------------------| x1
F |----------------------------------------------------------------|
C |----------------------------0-0-----0---------------------------|

Bridge IV (2:54)
D#|----------------------------------------------------------------|
A#|----------------------------------------------------------------| x1
F |----32-------------32-------------32-------------32---------|
C |3p0-------0h5p3---0-------0h3h5p3p0-------0h5p3---0-------0h3h5-|

Guitar Solo (2:59)
D#|--------------------------------|    |------------------------|
A#|--------------------------------| x2 |------------------------| x1
F |------------------------3--2----|    |--------0---------------|
C |0--3----3--5----0--3------------|    |------------------------|

Chorus (3:14) x1
Bridge IV (3:37) x1
Bridge II (3:42) x1

Outro (3:48)
D#|--------------|
A#|--------------| x1
F |--------------|
C |0-0-0-000-000-|
Show more