• Song:

    Suburban Me

  • Artist:

    In Flames

  • Album:

    Clayman (Deluxe Edition...

In Flames - Suburban Me 
Drop C tuning (prob not what they play in but it works for me)
Listen to song fro rythm timing

hammer on - h		vibrato - ~
pull off - p		tap - t
bend - b		harmonic - *
quarter bend - qb	pinch harmonic - ^
half bend - hb		mute - x
full bend - fb		plam mute - .
release - r		ring out - ~~~
slide up - /		ghost note or dubbed harmony - ( )
slide down - 		pick slide - \

Intro
-|-------------------------------|------------------------------------------|
-|-------------------------------|------------------------------------------|
-|-------------------------------|---------------------------10----109--9---| Gtr 1
-|----10----10---10----10----10--|--9--------9--------9------12-12-12---12--|
-|-77--7-77--7-77/8-88--8-88--8-8|/10-1010--10-1010--10-1010----------------|
-|-------------------------------|------------------------------------------|
   ..    ..    .    ..    ..    .     . .      . .      . .      .      
-|-------------------------------|---------------------------|----------|
-|-------------------------------|---------------------------|----------|
-|-------------------------------|-----------------10-10-x--9|--9--9--9-| Gtr 1
-|----10----10---10----10----10--|-10-10-x--9--9-x-12-12-x-12|-12-12-12-| ring out once
-|-77--7-77--7-77/8-88--8-88--8-8|-10-10-x-10-10-------------|----------| play second part in chorus
-|-------------------------------|---------------------------|----------|
   ..    ..    .    ..    ..    .                  
-|-----------------------------------------------------------------------|
-|-----------------------------------------------------------------------|
-|--------------------------------------------------------------------14-| Gtr 2
-|----------------------------------------------------------0--/15-17----|
-|----------------------------------------------------------0------------|
-|----------------------------------------------------------0------------|

-|--------------------------------------------------------------------------|
-|--------------------------------------------------------------------------|
-|---------------------------------------------------------------10-109--9--| Gtr 1
-|--10-------10----------------10-10--------------9--9-----------12-12---12-|
-|---7--------7--------7--------8--8--------8----10-10-----10---------------|
-|--------------------------------------------------------------------------|
                       .                    .               .
-|---------------------------------------------------------------------------|
-|------------------------------17~--/17-15-13-------------------------------|
-|-17-16h17p16-14-17~--17-16-14----------------17-16-16h17p16-14-17-16---14~-| Gtr 2
-|---------------------------------------------------------------------17----|
-|---------------------------------------------------------------------------|
-|---------------------------------------------------------------------------|

-|----------------------------------------------------------------------------|
-|----------------------------------------------------------------------------|
-|--------------------------------------------------------------10-10-x--9--9-| Gtr 1
-|--10-------10----------------10-10------------10-10-x--9--9-x-12-12-x-12-12-|
-|---7--------7--------7--------8--8--------8---10-10-x-10-10-x---------------|
-|----------------------------------------------------------------------------|
                       .                    .      
-|--------15-17~------------15-17-19fbr-19~------------------------------------|
-|-/17-19---------------------------------------17-15-15-13--------------------|
-|----------------------------------------------------------17-16h17p16----14~-| Gtr 2
-|----------------------------------------------------------------------17-----|
-|-----------------------------------------------------------------------------|
-|-----------------------------------------------------------------------------|

Verse
-|-------------------------------------------------------|
-|---5-------3--/6-5-3------5----------------------------|
-|-2-------2-------------2-------------------------------| Gtr 1
-|-------------------------------7-7-x-5-5-x-10-10-x--9~-|
-|-------------------------------7-7-x-5-5-x-12-12-x-10~-|
-|-------------------------------7-7-x-5-5-x-------------|
      
-|-------------------------------------------------------|
-|-------------------------------------------------------|
-|-------------------------------------------------------| Gtr 2
-|-------------------------------7-7-x-5-5-x-10-10-x--9~-|
-|-------------------------------7-7-x-5-5-x-12-12-x-10~-|
-|-------------------------------7-7-x-5-5-x-------------|

Bridge
-|--------------------------------------------------|-||-------------------|
-|--------------------------------------------------|-||-------------------|
-|----4--2--0----------------4--2--0----------------|-||-------------------| Gtr 1 
-|-2-----------0--4--5--7--2----------7-7-10-10-5-5-|-||-7-7-10-10-3-3-5-5-|
-|-2-----------0-----------2----------7-7-10-10-5-5-|-||-7-7-10-10-3-3-5-5-|
-|-2----2--2---0---0--0----2--2--2----7-7-10-10-5-5-|-||-7-7-10-10-3-3-5-5-|
        .  .       .  .       .  .  
-|--------------------------------------------------|-||-------------------|
-|--------------------------------------------------|-||-------------------|
-|--------------------------------------------------|-||-------------------| Gtr 2
-|-2--5--4--2--0--0--2--4--2--5--4--0-7-7-10-10-5-5-|-||-7-7-10-10-3-3-5-5-|
-|-2-----------0-----------2----------7-7-10-10-5-5-|-||-7-7-10-10-3-3-5-5-|
-|-2----2--2---0----0--0---2---2--2---7-7-10-10-5-5-|-||-7-7-10-10-3-3-5-5-|
        .  .        .  .       .  .
Verse 2 (Play verse 1 one time through then this)
-|------------------------------------------------------------------------|
-|------------------------------------------------------------------------|
-|------------------------------------------------------------------------| Gtr 1 & 2
-|-7--555555553333333333333333333333777777779999999-7-7-x-5-5-10-10-x--9~-| 
-|-7--555555553333333333333333333333777777779999999-7-7-x-5-5-12-12-x-10~-|
-|-7--555555553333333333333333333333777777779999999-7-7-x-5-5-------------|
      .............................................

Chorus
-|--------------------------------------------------------------------------|
-|--------------------------------------------------------------------------|
-|---------------------------------------------------------------10-109--9-| Gtr 1
-|--10-------10----------------10-10--------------9--9-----------12-12---12-|
-|---7--------7--------7--------8--8--------8----10-10-----10---------------|
-|--------------------------------------------------------------------------|
                       .                    .               .
-|---------------------------------------------------------------------------|
-|---------------------------------------------------------------------------|
-|-/17-17-17--17-16-14-12-12~--------12/14-14/16----17---16h17p16-14-12--14~-| Gtr 2
-|---------------------------------------------------------------------------|
-|---------------------------------------------------------------------------|
-|---------------------------------------------------------------------------|


-|----------------------------------------------------------------------------|
-|----------------------------------------------------------------------------|
-|--------------------------------------------------------------10-10-x--9--9-| Gtr 1
-|--10-------10----------------10-10------------10-10-x--9--9-x-12-12-x-12-12-|
-|---7--------7--------7--------8--8--------8---10-10-x-10-10-x---------------|
-|----------------------------------------------------------------------------|
                       .                    .
-|----------------------|---------------||------------------------------------|
-|----------------------|---------------||------------------17-17-15~~~~~~~---|
-|-/17-17-17----17-16-14|-12-12~~~~~~~~~||------------------------------------| Gtr 2
-|----------------------|---------------||------------------------------------|
-|----------------------|---------------||------------------------------------|
-|----------------------|---------------||------------------------------------|

Solo (email the corrections)
-|------------------------------------------------------------------------------------|
-|------------------------------------------------------------------------------------|
-|------------------------------------------------------------------------------------| Gtr 1
-|-7~~~8-----------------------------------------------------------10~~~~~~~~~~~~~~~~-|
-|-7~~~8-----------------------------------------------------------10~~~~~~~~~~~~~~~~-|
-|-7~~~8-----------------------------------------------------------10~~~~~~~~~~~~~~~~-|

-|-------------------------------------------------------------------------------------------|
-|-------------------------------------------------------------------------------------------|
-|--------------------------------------------------------------1212----12121414121214141616-| Gtr 2
-|--------------------------1212----1212141412121414161614141616----1616---------------------|
-|------12121414151514141515----1515---------------------------------------------------------|
-|-------------------------------------------------------------------------------------------|
         . . . . . . . . . . . . . . . . . . . . . . . . . . . . . . . . . . . . . . . . . .
-|-------------------------------------------------------------------------------------------------|
-|-------------------------------------------------------------------------------------------------|
-|-------------------------------------------------------------------------------------------------| Gtr 1
-|---------------------------------------------7-------8------10-----------------------------------|
-|---------------------------------------------7-------8------10--------------------5(7)-7(8)-8(10)|
-|---------------------------------------------7-------8------10----5(7)-7(8)-8(10)----------------|

-|-------------------------------------/19fb~-------------------------------------15~-|
-|--------1313----13131515131315151717------------13fbr-13hbr--15~---13-15-18-17------|
-|14141616----1616-------------------------------------------12----15-----------17----| Gtr 2
-|------------------------------------------------------------------------------------|
-|------------------------------------------------------------------------------------|
-|------------------------------------------------------------------------------------|

-|---------------------------------------------------------------------------------|
-|---------------------------------------------------------------------------------|
-|---------------------------------------------------------------------------------| Gtr 1
-|-----------------------7--------------------8---------------------5--------------|
-|-----------------------7--------------------8---------------------5--------------|
-|-----------------------7--------------------8---------------------5--------------|

-|12p10p9------12p10p9-12p10p9-14p12p10------14p12p10------14p12p10-16p14p12-------|
-|-------101010------------------------121212--------121212-----------------141414-|
-|---------------------------------------------------------------------------------| Gtr 2
-|---------------------------------------------------------------------------------|
-|---------------------------------------------------------------------------------|
-|---------------------------------------------------------------------------------|

-|----------------------------------------------------------------------------------------|
-|----------------------------------------------------------------------------------------|
-|----------------------------------------------------------------------------------------| Gtr 1
-|------------------------10----------------------7---------------------8------------10---|
-|------------------------10----------------------7---------------------8------------10---|
-|------------------------10----------------------7---------------------8------------10---|

-|-16p14p12------16p14p12-18p16p14------20fb~---17(19)-15(17)-13(15)-15(17)-15(17)-13(15)-|
-|---------141414-----------------151515--------------------------------------------------|
-|----------------------------------------------------------------------------------------| Gtr 2
-|----------------------------------------------------------------------------------------|
-|----------------------------------------------------------------------------------------|
-|----------------------------------------------------------------------------------------|

-|-----------------------------------------------------------------------------------|
-|-----------------------------------------------------------------------------------|
-|-----------------------------------------------------------------------------------| Gtr 1
-|---------------------------------------7-------------8--------------10-------------|
-|-----------------5(7)-7(8)-8(10)-------7-------------8--------------10-------------|
-|-5(7)-7(8)-8(10)-----------------------7-------------8--------------10-------------|

-|-12(13)-13(15)-13hbr------13fbr-13p12-----12h14h1610h12h1412h14h16-20hb~-----------|
-|---------------------15-13-----------15~--------------------------------20-18------|
-|-----------------------------------------------------------------------------15-17-| Gtr 2
-|-----------------------------------------------------------------------------------|
-|-----------------------------------------------------------------------------------|
-|-----------------------------------------------------------------------------------|

-|----------------------------------------------------------------------------------|
-|----------------------------------------------------------------------------------|
-|----------------------------------------------------------------------------------| Gtr 1
-|----------------------------------------------------------------------------------|
-|---------------------------------5(7)-7(8)-8(10)-10(12)-8(10)-7(8)-5(7)-7(8)------|
-|------------------5(7)-7(8)-8(10)-------------------------------------------8(10)-|

-|----------------------------20fb~(whammy bar effect)-|
-|-----------------------------------------------------|
-|-----------------------------------------------------| Gtr 2
-|-14-15-14-12-----------------------------------------|
-|------------14-15----8qbr----------------------------|
-|-----------------------------------------------------|

Fill (into chorus
-|------------------------------------------------------------------------|
-|------------------------------------------------------------------------|
-|------------------------------------------------------------------------| Gtr 1
-|-/10-10-10-9----------------------/10-10-10-9-10-12-12~~~~~~~~~---------|
-|-------------12-10-10~~~~~~~~~~~~---------------------------------------|
-|------------------------------------------------------------------------|
Play intro then end on open
-|------------------------------------------------------------------------|
-|------------------------------------------------------------------------|
-|------------------------------------------------------------------------| Gtr 2
-|---------------------------------------------------------------0~~~~~~~~|
-|---------------------------------------------------------------0~~~~~~~~|
-|---------------------------------------------------------------0~~~~~~~~|

Ending
-|-------------------------------|
-|-------------------------------|
-|-------------------------------| Gtr 1
-|-------------------------------|
-|--------5-7-8-------5-7---3~---|
-|-5-7-8--------5-7-8-----8------|

-|-------------------------------|
-|-------------------------------|
-|-------------------------------| Gtr 2
-|-------------------------------|
-|-------7-8-10------7-8----5~---|
-|-7-8-10------7-8-10----10------|
Show more