• Song:

    Swim

  • Artist:

    In Flames

  • Album:

    Clayman (Deluxe Edition...

SWIM
                            As recorded by In Flames
                          (From the 2000 Album CLAYMAN)

Words by Anders Fridén

Music by In Flames
Arranged by Nuclearblast©
Transcribed by calle90©

Gtr I (C F Bb Eb G C) - 'lead 1'
Gtr II (C F Bb Eb G C) - 'lead 2'
Gtr III (C F Bb Eb G C) - 'comp'

 Intro
  Q=170
  N.C.                  G5       D5
 4/4
  Gtrs I, II, III
                                  ~~
  H    E S S S  S S S    E  E  E  H       S  S
|-----------------7-8-|-10--8--7--5----------5-|
|----------7-8-10-----|-------------------8----|
|--------9------------|------------------------|
|---------------------|------------------------|
|---------------------|------------------------|
|---------------------|------------------------|
|
| Gtr II
|                                 ~~
| W                      E  E  E  H       S  S
|---------------------|------------------------|
|---------------------|------------------------|
|---------------------|-16-14-12-11---------11-|
|---------------------|------------------14----|
|---------------------|------------------------|
|---------------------|------------------------|
|
| Gtr III
| W                      Q     E  Q  E E  E
|---------------------|------------------------|
|---------------------|------------------------|
|---------------------|-----------7--7-7--7----|
|---------------------|--5-----5--7--7-7--7----|
|---------------------|--5-----5--5--5-5--5----|
|---------------------|--3-----3---------------|


  B5      C5             A5    B5   E5
           ~~                       ~
   E  E E  H       +E    E E E Q  E Q
|--7--5----------------|----------------|
|-------8--5-------(5)-|-8-5-8-7----5---|
|----------------------|----------7-----|
|----------------------|----------------|
|----------------------|----------------|
|----------------------|----------------|
|
|          ~~                       ~
|  E  E E  H       +E    E E E Q  E Q
|----------------------|-7---7-5--------|
|----------------------|---8------7-8---|
|-12-11-9--------------|----------------|
|---------10------(10)-|----------------|
|----------------------|----------------|
|----------------------|----------------|
|
|  Q    E  Q  E E   E    Q   E Q  E Q
|----------------------|----------------|
|----------------------|----------------|
|--4----4--5--5-5---5--|-2---2-4--4-----|
|--4----4--5--5-5---5--|-2---2-4--4-2---|
|--2----2--3--3-3---3--|-0---0-2--2-2---|
|----------------------|------------0---|


  E5                       G5          D5
  +E  E  E  E E  E  E  E    E  S  S  E  H       S  S
|----------------5--7--8-|-10--8h10--7--5----------5-|
|-(5)----5--7-8----------|----------------------8----|
|-----7------------------|---------------------------|
|------------------------|---------------------------|
|------------------------|---------------------------|
|------------------------|---------------------------|
|
|                                       ~~
| +E  E  E  E E  E  E  E    E  E     E  H       S  S
|------------------------|---------------------------|
|-(8)--------------------|---------------------------|
|-------------9-11-12-14-|-16-14----12-11---------11-|
|-----9-10-12------------|---------------------14----|
|------------------------|---------------------------|
|------------------------|---------------------------|
|
| +W                        Q        E  Q  E E  E
|------------------------|---------------------------|
|------------------------|---------------------------|
|------------------------|--------------7--7-7--7----|
|-(2)--------------------|--5--------5--7--7-7--7----|
|-(2)--------------------|--5--------5--5--5-5--5----|
|-(0)--------------------|--3--------3---------------|


  B5      C5             A5    B5   C5
           ~~                       ~
   E  E E  H       +E    E E E Q  E Q
|--7--5----------------|-----------------|
|-------8--5-------(5)-|-8-5-8-7----5----|
|----------------------|----------7------|
|----------------------|-----------------|
|----------------------|-----------------|
|----------------------|-----------------|
|
|          ~~                       ~
|  E  E E  H       +E    E E E Q  E Q
|----------------------|-7---7-5---------|
|----------------------|---8------7-8----|
|-12-11-9--------------|-----------------|
|---------10------(10)-|-----------------|
|----------------------|-----------------|
|----------------------|-----------------|
|
|  Q    E  Q  E E   E    Q   E Q  E Q
|----------------------|-----------------|
|----------------------|-----------------|
|--4----4--5--5-5---5--|-2---2-4--4-5----|
|--4----4--5--5-5---5--|-2---2-4--4-5----|
|--2----2--3--3-3---3--|-0---0-2--2-3----|
|----------------------|-----------------|


  C5               N.C.
                   PM   PM      PM   PM
  +H     +H        E  E E  E  E E  E E
|----------------|-----------12--------|
|-(5)----(5)----|---12---10------12---|
|----------------|-9----9-------9----9-|
|----------------|---------------------|
|----------------|---------------------|
|----------------|---------------------|
|
| +H     +H        W
|----------------|---------------------|
|-(8)----(8)----|---------------------|
|----------------|---------------------|
|----------------|---------------------|
|----------------|---------------------|
|----------------|---------------------|
|
| +W               W
|----------------|---------------------|
|----------------|---------------------|
|-(5)------------|---------------------|
|-(5)------------|---------------------|
|-(3)------------|---------------------|
|----------------|---------------------|


  N.C.                  N.C.
       PM   PM   PM     PM      PM   PM   PM
   E E E  E E  E E  E   E  E  E E  E E  E E
|-10-9-------------12-|------10-------------|
|--------10---12------|---12------10---12---|
|------9----9----9----|-9-------9----9----9-|
|---------------------|---------------------|
|---------------------|---------------------|
|---------------------|---------------------|
|
|  W                    W
|---------------------|---------------------|
|---------------------|---------------------|
|---------------------|---------------------|
|---------------------|---------------------|
|---------------------|---------------------|
|---------------------|---------------------|
|
|  W                    W
|---------------------|---------------------|
|---------------------|---------------------|
|---------------------|---------------------|
|---------------------|---------------------|
|---------------------|---------------------|
|---------------------|---------------------|


                    E5    E5
                          PM-------------------
   E   E E  E E E E E     E  E E  E  E E  E E
|-10---9-7--------------|-----------12--------|
|----------10-8-7-------|---12---10------12---|
|-----------------9-7---|-9----9-------9----9-|
|-----------------------|---------------------|
|-----------------------|---------------------|
|-----------------------|---------------------|
|
|  H..              S S   W
|-----------------------|---------------------|
|-----------------------|---------------------|
|-----------------------|---------------------|
|-------------------2-2-|-2-------------------|
|-------------------2-2-|-2-------------------|
|-------------------0-0-|-0-------------------|


  E5                     E5
 --------------------------------------------|
   E  E E  E E  E E  E    E   E  E E  E E  E E
|-10--9-------------12-|--------10-------------|
|---------10---12------|-----12------10---12---|
|-------9----9----9----|--9--------9----9----9-|
|----------------------|-----------------------|
|----------------------|-----------------------|
|----------------------|-----------------------|
|
| +W                     +W
|----------------------|-----------------------|
|----------------------|-----------------------|
|----------------------|-----------------------|
|-(2)------------------|-(2)-------------------|
|-(2)------------------|-(2)-------------------|
|-(0)------------------|-(0)-------------------|


                       Verse
                    $
                    $
  N.C.                    E5   D5 E5
                        PM   PM      PM    PM
   E E E  E E E E E     E  E E  E  E E   E E
|-10-9-7------------||------------12---------|
|--------10-8-7-----||o---12---10-------12---|
|---------------9-7-||--9----9-------9-----9-|
|-------------------||-----------------------|
|-------------------||o----------------------|
|-------------------||-----------------------|
|
|  E E E  E E E E E     E  E E  E  E Q.
|-------------------||-----------------------|
|-------------------||o----------------------|
|-------------------||-----------------------|
|--5-4-2------------||-----9----7s=9---------|
|---------5-3-2-----||o----7----5s=7---------|
|---------------5-3-||--0----0---------------|


                          E5    D5E5           D5        C5
       PM   PM   PM     PM      PM   PM    PM
   E E E  E E  E E  E   E  E  E E  E E   E E    E E E  E E E E E
|-10-9-------------12-|------10--------------|-10-9-7-------------||
|--------10---12------|---12------10----12---|--------10-8-7-----o||
|------9----9----9----|-9-------9----9-----9-|---------------9-7--||
|---------------------|----------------------|--------------------||
|---------------------|----------------------|-------------------o||
|---------------------|----------------------|--------------------||
|
|  W                    E  E  E E  E Q.         H        H
|---------------------|----------------------|--------------------||
|---------------------|----------------------|-------------------o||
|---------------------|----------------------|--------------------||
|---------------------|----9----7s=9---------|--7--------5--------||
|---------------------|----7----5s=7---------|--5--------3-------o||
|---------------------|-0-----0--------------|--------------------||


 Pre-Chorus
  N.C.                B5    C5          N.C.               E5    B5
   ~~~
   H        H         W                  W                 W
|-------------------|-----------------|------------------|-----------------|
|-------------------|-----------------|------------------|-----------------|
|--9---------------|-----------------|------------------|-----------------|
|-------------------|-----------------|------------------|-----------------|
|-------------------|-----------------|------------------|-----------------|
|-------------------|-----------------|------------------|-----------------|
|
| Gtr I
|     PM|   PM  PM|                        PM|   PM  PM|
|  E  E E E E E E E   E E E E E E E E    E E E E E E E E   E E E E E E E E
|-------------------|-----------------|------------------|-----------------|
|-------------------|-----------------|------------------|-----------------|
|-------------------|-----------------|------------------|-----------------|
|-------------------|-----------------|-10-----9---7-----|-5-5-5-----------|
|-10------9---7-----|-5-5-5-7-7-7-7-7-|----0-0---0---0-0-|-7-7-7-5-5-5-5-5-|
|-----0-0---0---0-0-|-7-7-7-8-8-8-8-8-|------------------|-------7-7-7-7-7-|
|
| Gtr II
|     PM|   PM    PM                       PM|   PM  PM|
|  E  E E E E E E E   E E E E E E E E    E E E E E E E E   E E E E E E E E
|-------------------|-----------------|------------------|-----------------|
|-------------------|-----------------|------------------|-----------------|
|-------------------|-----------------|--9-----7---5-----|-4-4-4-----------|
|--9------7---5-----|-4-4-4-5-5-5-5-5-|------------------|-2-2-2-4-4-4-4-4-|
|-------------------|-2-2-2-3-3-3-3-3-|----0-0---0---0-0-|-------2-2-2-2-2-|
|-----0-0---0---0-0-|-----------------|------------------|-----------------|


  N.C.               B5    C5          N.C.
  Gtr II
     PM|   PM  PM|                        PM|   PM  PM|
   E E E E E E E E   E E E E E E E E    E E E E E E E E
|------------------|-----------------|------------------|
|------------------|-----------------|------------------|
|------------------|-----------------|------------------|
|------------------|-----------------|-10-----9---7-----|
|-10-----9---7-----|-5-5-5-7-7-7-7-7-|----0-0---0---0-0-|
|----0-0---0---0-0-|-7-7-7-8-8-8-8-8-|------------------|
|
| Gtr III
|    PM|   PM  PM|                        PM|   PM  PM|
|  E E E E E E E E   E E E E E E E E    E E E E E E E E
|------------------|-----------------|------------------|
|------------------|-----------------|------------------|
|------------------|-----------------|--9-----7---5-----|
|--9-----7---5-----|-4-4-4-5-5-5-5-5-|------------------|
|------------------|-2-2-2-3-3-3-3-3-|----0-0---0---0-0-|
|----0-0---0---0-0-|-----------------|------------------|


            D.S.
  E5    B5
  E E E E E E E E   E E E E E S S S  S S S
|-----------------|--------------------7-8-|
|-----------------|-------------7-8-10-----|
|-----------------|-----------9------------|
|-5-5-5-----------|-5-5-5------------------|
|-7-7-7-5-5-5-5-5-|-7-7-7-5----------------|
|-------7-7-7-7-7-|-------7----------------|
|
| E E E E E E E E   E E E E E E   E    E
|-----------------|------------------------|
|-----------------|------------------------|
|-4-4-4-----------|-4-4-4------------------|
|-2-2-2-4-4-4-4-4-|-2-2-2-4-4-4---4----4---|
|-------2-2-2-2-2-|-------2-2-2---2----2---|
|-----------------|------------------------|


   Chorus
    G5       D5              B5      C5
    Gtr I
              ~~                      ~~
     E  E  E  H       S  S    E  E E  H       +E
||--10--8--7--5----------5-|--7--5----------------|
||o-------------------8----|-------8--5-------(5)-|
||-------------------------|----------------------|
||-------------------------|----------------------|
||o------------------------|----------------------|
||-------------------------|----------------------|
|
|   Gtr II
|             ~~                      ~~
|    E  E  E  H       S  S    E  E E  H       +E
||-------------------------|----------------------|
||o------------------------|----------------------|
||--16-14-12-11---------11-|-12-11-9--------------|
||-------------------14----|---------10------(10)-|
||o------------------------|----------------------|
||-------------------------|----------------------|
|
|   Gtr III
|    Q     E  Q  E E  E       Q    E  Q  E E   E
||-------------------------|----------------------|
||o------------------------|----------------------|
||------------7--7-7--7----|--4----4--5--5-5---5--|
||---5-----5--7--7-7--7----|--4----4--5--5-5---5--|
||o--5-----5--5--5-5--5----|--2----2--3--3-3---3--|
||---3-----3---------------|----------------------|


  A5    B5   E5   E5
             ~
  E E E Q  E Q    +E  E  E  E E  E  E  E
|---------------|----------------5--7--8-|
|-8-5-8-7----5--|-(5)----5--7-8----------|
|----------7----|-----7------------------|
|---------------|------------------------|
|---------------|------------------------|
|---------------|------------------------|
|
|            ~
| E E E Q  E Q    +E  E  E  E E  E  E  E
|-7---7-5-------|------------------------|
|---8------7-8--|-(8)--------------------|
|---------------|-------------9-11-12-14-|
|---------------|-----9-10-12------------|
|---------------|------------------------|
|---------------|------------------------|
|
| Q   E Q  E Q    +W
|---------------|------------------------|
|---------------|------------------------|
|-2---2-4--4----|------------------------|
|-2---2-4--4-2--|-(2)--------------------|
|-0---0-2--2-2--|-(2)--------------------|
|------------0--|-(0)--------------------|


  G5       D5              B5      C5
            ~~                      ~~
   E  E  E  H       S  S    E  E E  H       +E
|-10--8--7--5----------5-|--7--5----------------|
|-------------------8----|-------8--5-------(5)-|
|------------------------|----------------------|
|------------------------|----------------------|
|------------------------|----------------------|
|------------------------|----------------------|
|
|           ~~                      ~~
|  E  E  E  H       S  S    E  E E  H       +E
|------------------------|----------------------|
|------------------------|----------------------|
|-16-14-12-11---------11-|-12-11-9--------------|
|------------------14----|---------10------(10)-|
|------------------------|----------------------|
|------------------------|----------------------|
|
|  Q     E  Q  E E  E       Q    E  Q  E E   E
|------------------------|----------------------|
|------------------------|----------------------|
|-----------7--7-7--7----|--4----4--5--5-5---5--|
|--5-----5--7--7-7--7----|--4----4--5--5-5---5--|
|--5-----5--5--5-5--5----|--2----2--3--3-3---3--|
|--3-----3---------------|----------------------|


                  1.
  A5    B5   C5   C5
             ~
  E E E Q  E Q    +E  E  E  E E  E  E  E
|---------------|----------------5--7--8--||
|-8-5-8-7----5--|-(5)----5--7-8----------o||
|----------7----|-----7-------------------||
|---------------|-------------------------||
|---------------|------------------------o||
|---------------|-------------------------||
|
|            ~
| E E E Q  E Q    +E  E  E  E E  E  E  E
|-7---7-5-------|-------------------------||
|---8------7-8--|-(8)--------------------o||
|---------------|-------------9-11-12-14--||
|---------------|-----9-10-12-------------||
|---------------|------------------------o||
|---------------|-------------------------||
|
| Q   E Q  E Q    +W
|---------------|-------------------------||
|---------------|------------------------o||
|-2---2-4--4-5--|-(5)---------------------||
|-2---2-4--4-5--|-(5)---------------------||
|-0---0-2--2-3--|-(3)--------------------o||
|---------------|-------------------------||


                    Interlude
  2.
  C5                 E5                  C5         D5
                           ~
   H     +H          E E E H       +E    +E  E E  E  E  E  E  E
|----------------||--------7-------(7)-|-(7)--------------------|
|--5-----(5)----||o---8---------------|-----8------------10----|
|----------------||--9---9-------------|-------9-------11----11-|
|----------------||--------------------|---------10-12----------|
|----------------||o-------------------|------------------------|
|----------------||--------------------|------------------------|
|
|  H     +H          W                    W
|----------------||--------------------|------------------------|
|--8-----(8)----||o-------------------|------------------------|
|----------------||--------------------|------------------------|
|----------------||--------------------|------------------------|
|----------------||o-------------------|------------------------|
|----------------||--------------------|------------------------|
|
|                    PM------------------------------------------
| +W                 E E E E E E E  E     E  E E  E  E  E  E  E
|----------------||--------------------|------------------------|
|----------------||o-------------------|------------------------|
|-(5)------------||--------------------|------------------------|
|-(5)------------||--------------------|--5--5-5--5--7--7--7--7-|
|-(3)------------||o-2-2-2-2-2-2-2--2--|--3--3-3--3--5--5--5--5-|
|----------------||--0-0-0-0-0-0-0--0--|------------------------|


  E5                  C5         D5
        ~
  E E E H       +E    +E   E E E E Q.
|-------7-------(7)-|-(7)------------------||
|---8---------------|-----10---8---7------o||
|-9---9-------------|-----11---9---7-------||
|-------------------|----------------------||
|-------------------|---------------------o||
|-------------------|----------------------||
|
| W                    W
|-------------------|----------------------||
|-------------------|---------------------o||
|-------------------|----------------------||
|-------------------|----------------------||
|-------------------|---------------------o||
|-------------------|----------------------||
|
|---------------------------------------|
| E E E E E E E  E     E   E E E E E  E E
|-------------------|----------------------||
|-------------------|---------------------o||
|-------------------|----------------------||
|-------------------|--5---5-5-5-7-7--7-7--||
|-2-2-2-2-2-2-2--2--|--3---3-3-3-5-5--5-5-o||
|-0-0-0-0-0-0-0--0--|----------------------||


                                                          1.
    E5                E5                C5                D5        N.C.
    Gtrs I, II
    E E E E E E E E   E E E E E E E E   E E E E E E E E   E E E E E E E E
||------------------|-----------------|-----------------|-------------------||
||o-----------------|-----------------|-----------------|------------------o||
||------------------|-----------------|-5-5---5-5---5-5-|-7-7-7-7-7---------||
||--2-2---2-2---2-2-|-2-2---2-2---2-2-|-5-5---5-5---5-5-|-7-7-7-7-7---------||
||o-2-2---2-2---2-2-|-2-2---2-2---2-2-|-3-3---3-3---3-3-|-5-5-5-5-5-0-0-0--o||
||--0-0---0-0---0-0-|-0-0---0-0---0-0-|-----------------|-----------5-3-2---||


  2.
  D5                F#5       D5   D5              F#5       D5   D5
                    Gtr I
  E E E E E E E E   H.        Q    +W              H.        Q    +W
|-----------------|--------------|---------------|--------------|------------|
|-----------------|--------------|---------------|--------------|------------|
|-7-7-7-7-7-7-7-7-|-----------7--|-(7)-----------|-----------7--|-(7)--------|
|-7-7-7-7-7-7-7-7-|-4---------7--|-(7)-----------|-4---------7--|-(7)--------|
|-5-5-5-5-5-5-5-5-|-4---------5--|-(5)-----------|-4---------5--|-(5)--------|
|-----------------|-2------------|---------------|-2------------|------------|
|
|                   Gtr II
| W                 Q.   Q.   Q    +E  H..         Q.   Q.   Q    +E  H..
|-----------------|--------------|---------------|--------------|------------|
|-----------------|-7----5-------|---------------|-7----5-------|------------|
|-----------------|-----------6--|-(6)-7---------|-----------6--|-(6)-7------|
|-----------------|--------------|---------------|--------------|------------|
|-----------------|--------------|---------------|--------------|------------|
|-----------------|--------------|---------------|--------------|------------|


  F#5       D5   D5              F#5       D5   D5
  H.        Q    +W              H.        Q    +W
|--------------|---------------|--------------|------------|
|--------------|---------------|--------------|------------|
|-----------7--|-(7)-----------|-----------7--|-(7)--------|
|-4---------7--|-(7)-----------|-4---------7--|-(7)--------|
|-4---------5--|-(5)-----------|-4---------5--|-(5)--------|
|-2------------|---------------|-2------------|------------|
|
| Q.   Q.   Q    +E  H..         Q.   Q.   Q    +E  H..
|--------------|---------------|--------------|------------|
|-7----5-------|---------------|-7----5-------|------------|
|-----------6--|-(6)-7---------|-----------6--|-(6)-7------|
|--------------|---------------|--------------|------------|
|--------------|---------------|--------------|------------|
|--------------|---------------|--------------|------------|
|
| Gtr III
| Q.   Q.   Q    +E  H..         Q.   Q.   Q    +E  H..
|-5----4-------|---------------|-5----4-------|------------|
|-----------5--|-(5)-7---------|-----------5--|-(5)-7------|
|--------------|---------------|--------------|------------|
|--------------|---------------|--------------|------------|
|--------------|---------------|--------------|------------|
|--------------|---------------|--------------|------------|


    E5                  C5         D5
    Gtrs I, II
          ~
    E E E H       +E    +E  E E  E  E  E  E  E
||--------7-------(7)-|-(7)--------------------|
||o---8---------------|-----8------------10----|
||--9---9-------------|-------9-------11----11-|
||--------------------|---------10-12----------|
||o-------------------|------------------------|
||--------------------|------------------------|
|
|   Gtr III
|   PM------------------------------------------
|   E E E E E E E  E     E  E E  E  E  E  E  E
||--------------------|------------------------|
||o-------------------|------------------------|
||--------------------|------------------------|
||--------------------|--5--5-5--5--7--7--7--7-|
||o-2-2-2-2-2-2-2--2--|--3--3-3--3--5--5--5--5-|
||--0-0-0-0-0-0-0--0--|------------------------|


  E5                  C5         D5
        ~
  E E E H       +E    +E   E E E E Q.
|-------7-------(7)-|-(7)-------------------||
|---8---------------|-----10---8---7-------o||
|-9---9-------------|-----11---9---7--------||
|-------------------|-----------------------||
|-------------------|----------------------o||
|-------------------|-----------------------||
|
|---------------------------------------|
| E E E E E E E  E     E   E E E E E  E E
|-------------------|-----------------------||
|-------------------|----------------------o||
|-------------------|-----------------------||
|-------------------|--5---5-5-5-7-7--7-7---||
|-2-2-2-2-2-2-2--2--|--3---3-3-3-5-5--5-5--o||
|-0-0-0-0-0-0-0--0--|-----------------------||


   Verse
      E5   D5 E5           N.C.
    PM   PM      PM    PM       PM   PM   PM
    E  E E  E  E E   E E    E E E  E E  E E  E
||------------12---------|-10-9-------------12-|
||o---12---10-------12---|--------10---12------|
||--9----9-------9-----9-|------9----9----9----|
||-----------------------|---------------------|
||o----------------------|---------------------|
||-----------------------|---------------------|
|
|   E  E E  E  E Q.         W
||-----------------------|---------------------|
||o----------------------|---------------------|
||-----------------------|---------------------|
||-----9----7s=9---------|---------------------|
||o----7----5s=7---------|---------------------|
||--0----0---------------|---------------------|


    E5    D5E5           D5        C5
  PM      PM   PM    PM
  E  E  E E  E E   E E    E E E  E E E E E
|------10--------------|-10-9-7--------------||
|---12------10----12---|--------10-8-7------o||
|-9-------9----9-----9-|---------------9-7---||
|----------------------|---------------------||
|----------------------|--------------------o||
|----------------------|---------------------||
|
| E  E  E E  E Q.         H        H
|----------------------|---------------------||
|----------------------|--------------------o||
|----------------------|---------------------||
|----9----7s=9---------|--7--------5---------||
|----7----5s=7---------|--5--------3--------o||
|-0-----0--------------|---------------------||


  N.C.                B5    C5          N.C.               E5    B5
  Gtr I
   ~~~
   H        H         W                  W                 W
|-------------------|-----------------|------------------|-----------------|
|-------------------|-----------------|------------------|-----------------|
|--9---------------|-----------------|------------------|-----------------|
|-------------------|-----------------|------------------|-----------------|
|-------------------|-----------------|------------------|-----------------|
|-------------------|-----------------|------------------|-----------------|
|
| Gtr II
|     PM|   PM  PM|                        PM|   PM  PM|
|  E  E E E E E E E   E E E E E E E E    E E E E E E E E   E E E E E E E E
|-------------------|-----------------|------------------|-----------------|
|-------------------|-----------------|------------------|-----------------|
|-------------------|-----------------|------------------|-----------------|
|-------------------|-----------------|-10-----9---7-----|-5-5-5-----------|
|-10------9---7-----|-5-5-5-7-7-7-7-7-|----0-0---0---0-0-|-7-7-7-5-5-5-5-5-|
|-----0-0---0---0-0-|-7-7-7-8-8-8-8-8-|------------------|-------7-7-7-7-7-|
|
| Gtr III
|     PM|   PM  PM|                        PM|   PM  PM|
|  E  E E E E E E E   E E E E E E E E    E E E E E E E E   E E E E E E E E
|-------------------|-----------------|------------------|-----------------|
|-------------------|-----------------|------------------|-----------------|
|-------------------|-----------------|--9-----7---5-----|-4-4-4-----------|
|--9------7---5-----|-4-4-4-5-5-5-5-5-|------------------|-2-2-2-4-4-4-4-4-|
|-------------------|-2-2-2-3-3-3-3-3-|----0-0---0---0-0-|-------2-2-2-2-2-|
|-----0-0---0---0-0-|-----------------|------------------|-----------------|


  N.C.               B5    C5
     PM|   PM  PM|
   E E E E E E E E   E E E E E E E E
|------------------|-----------------|
|------------------|-----------------|
|------------------|-----------------|
|------------------|-----------------|
|-10-----9---7-----|-5-5-5-7-7-7-7-7-|
|----0-0---0---0-0-|-7-7-7-8-8-8-8-8-|
|
|    PM|   PM  PM|
|  E E E E E E E E   E E E E E E E E
|------------------|-----------------|
|------------------|-----------------|
|------------------|-----------------|
|--9-----7---5-----|-4-4-4-5-5-5-5-5-|
|------------------|-2-2-2-3-3-3-3-3-|
|----0-0---0---0-0-|-----------------|


  N.C.               E5    B5
     PM|   PM  PM|
   E E E E E E E E   E E E E E S S S  S S S
|------------------|--------------------7-8--|
|------------------|-------------7-8-10------|
|------------------|-----------9-------------|
|-10-----9---7-----|-5-5-5-------------------|
|----0-0---0---0-0-|-7-7-7-5-----------------|
|------------------|-------7-----------------|
|
|    PM|   PM  PM|
|  E E E E E E E E   E E E E E E   E    E
|------------------|-------------------------|
|------------------|-------------------------|
|--9-----7---5-----|-4-4-4-------------------|
|------------------|-2-2-2-4-4-4---4----4----|
|----0-0---0---0-0-|-------2-2-2---2----2----|
|------------------|-------------------------|


   Chorus
    G5       D5              B5      C5
              ~~                      ~~
     E  E  E  H       S  S    E  E E  H       +E
||--10--8--7--5----------5-|--7--5----------------|
||o-------------------8----|-------8--5-------(5)-|
||-------------------------|----------------------|
||-------------------------|----------------------|
||o------------------------|----------------------|
||-------------------------|----------------------|
|
|             ~~                      ~~
|    E  E  E  H       S  S    E  E E  H       +E
||-------------------------|----------------------|
||o------------------------|----------------------|
||--16-14-12-11---------11-|-12-11-9--------------|
||-------------------14----|---------10------(10)-|
||o------------------------|----------------------|
||-------------------------|----------------------|
|
|   Gtr III
|    Q     E  Q  E E  E       Q    E  Q  E E   E
||-------------------------|----------------------|
||o------------------------|----------------------|
||------------7--7-7--7----|--4----4--5--5-5---5--|
||---5-----5--7--7-7--7----|--4----4--5--5-5---5--|
||o--5-----5--5--5-5--5----|--2----2--3--3-3---3--|
||---3-----3---------------|----------------------|


  A5    B5   E5   E5
             ~
  E E E Q  E Q    +E  E  E  E E  E  E  E
|---------------|----------------5--7--8-|
|-8-5-8-7----5--|-(5)----5--7-8----------|
|----------7----|-----7------------------|
|---------------|------------------------|
|---------------|------------------------|
|---------------|------------------------|
|
|            ~
| E E E Q  E Q    +E  E  E  E E  E  E  E
|-7---7-5-------|------------------------|
|---8------7-8--|-(8)--------------------|
|---------------|-------------9-11-12-14-|
|---------------|-----9-10-12------------|
|---------------|------------------------|
|---------------|------------------------|
|
| Q   E Q  E Q    +W
|---------------|------------------------|
|---------------|------------------------|
|-2---2-4--4----|------------------------|
|-2---2-4--4-2--|-(2)--------------------|
|-0---0-2--2-2--|-(2)--------------------|
|------------0--|-(0)--------------------|


  G5       D5         D5   B5      C5
            ~~                      ~~
   E  E  E  H       S  S    E  E E  H       +E
|-10--8--7--5----------5-|--7--5----------------|
|-------------------8----|-------8--5-------(5)-|
|------------------------|----------------------|
|------------------------|----------------------|
|------------------------|----------------------|
|------------------------|----------------------|
|
|           ~~                      ~~
|  E  E  E  H       S  S    E  E E  H       +E
|------------------------|----------------------|
|------------------------|----------------------|
|-16-14-12-11---------11-|-12-11-9--------------|
|------------------14----|---------10------(10)-|
|------------------------|----------------------|
|------------------------|----------------------|
|
|  Q     E  Q  E E  E       Q    E  Q  E E   E
|------------------------|----------------------|
|------------------------|----------------------|
|-----------7--7-7--7----|--4----4--5--5-5---5--|
|--5-----5--7--7-7--7----|--4----4--5--5-5---5--|
|--5-----5--5--5-5--5----|--2----2--3--3-3---3--|
|--3-----3---------------|----------------------|


                  1.
  A5    B5   C5   C5
             ~
  E E E Q  E Q    +E  E  E  E E  E  E  E
|---------------|----------------5--7--8--||
|-8-5-8-7----5--|-(5)----5--7-8----------o||
|----------7----|-----7-------------------||
|---------------|-------------------------||
|---------------|------------------------o||
|---------------|-------------------------||
|
|            ~
| E E E Q  E Q    +E  E  E  E E  E  E  E
|-7---7-5-------|-------------------------||
|---8------7-8--|-(8)--------------------o||
|---------------|-------------9-11-12-14--||
|---------------|-----9-10-12-------------||
|---------------|------------------------o||
|---------------|-------------------------||
|
| Q   E Q  E Q    +W
|---------------|-------------------------||
|---------------|------------------------o||
|-2---2-4--4-5--|-(5)---------------------||
|-2---2-4--4-5--|-(5)---------------------||
|-0---0-2--2-3--|-(3)--------------------o||
|---------------|-------------------------||


                  Outro
  2.
  C5               A5  A5B5 B5C5   C5  N.C.  E5
                              ~
   H     +H        E E E Q  E Q    +E  E E E Q   Q
|----------------|-7---7-5-------|------------------*|
|--5-----(5)----|---8------7-8--|-(8)-x-x-x-8-----*|
|----------------|---------------|------------------*|
|----------------|---------------|------------------*|
|----------------|---------------|------------------*|
|----------------|---------------|------------------*|
|
|                             ~
|  H     +H        E E E Q  E Q    +E  E E E Q   Q
|----------------|---------------|------------------*|
|--8-----(8)----|-8-5-8-7----5--|-(5)-x-x-x-5-----*|
|----------------|----------7----|------------------*|
|----------------|---------------|------------------*|
|----------------|---------------|------------------*|
|----------------|---------------|------------------*|
|
| +W               Q   E Q  E Q    +E  E E E Q   Q
|----------------|---------------|------------------*|
|----------------|---------------|------------------*|
|-(5)------------|-2---2-4--4-5--|-(5)--------------*|
|-(5)------------|-2---2-4--4-5--|-(5)-------2-----*|
|-(3)------------|-0---0-2--2-3--|-(3)-------2-----*|
|----------------|---------------|-----0-0-0-0------*|


Duration Legend
---------------
W - whole; H - half; Q - quarter; E - 8th; S - 16th; T - 32nd; X - 64th; a - acciaccatura
+ - note tied to previous; . - note dotted; .. - note double dotted
Uncapitalized letters represent notes that are staccato (1/2 duration)
Irregular groupings are notated above the duration line
Duration letters will always appear directly above the note/fret number it represents the
duration for.  Duration letters with no fret number below them represent rests.  Multi-
bar rests are notated in the form Wxn, where n is the number of bars to rest for.  Low
melody durations appear below the staff

Tablature Legend
----------------
 h   - hammer-on
 p   - pull-off
 b   - bend
 pb  - pre-bend
 r   - bend release (if no number after the r, then release immediately)
 /  - slide into or out of (from/to "nowhere")
 s   - legato slide
 S   - shift slide
  - natural harmonic
[n]  - artificial harmonic
n(n) - tapped harmonic
 ~   - vibrato
 tr  - trill
 T   - tap
 TP  - trem. picking
 PM  - palm muting
n/  - tremolo bar dip; n = amount to dip
 n  - tremolo bar down
 n/  - tremolo bar up
/n  - tremolo bar inverted dip
 =   - hold bend; also acts as connecting device for hammers/pulls
 <>  - volume swell (louder/softer)
 x   - on rhythm slash represents muted slash
 o   - on rhythm slash represents single note slash

Misc Legend
-----------
 |  - bar
||  - double bar
||o - repeat start
o|| - repeat end
*|  - double bar (ending)
 :  - bar (freetime)
 $  - Segno
 &  - Coda
Tempo markers -  = BPM(8/16=s8/s16), where s8 = swing 8ths, s16 = swing 16ths
Show more