• Song:

    Swim

  • Artist:

    In Flames

  • Album:

    Clayman (Deluxe Edition...

Artist: In Flames
Album: Clayman
Song: Swim
Tabbed by: Andrew (theglorifiedmalcontent)

Tuning: 4 half-steps down - C, F, A#, D#

------------= Key =------------
~  let ring         *  stop string

Inconsistently with most of my other tabs I've spaced
out the lines more so it's easier to read, except for
the Chorus and Intro Solo. Enjoy this, it's one of the
best In Flames songs ever written...

Chorus (0:01)
D#|----------------------------------------------------------------|
A#|----------------------------------------------------------------| x1
F |---5-5--2-23-3--0-02-2-------------5-5--2-23-3--0-02-23~--------|
C |3-3-------------------0~--------3-3-----------------------------|

Intro Solo (0:12)
D#|----------------------------------------------------------------|
A#|----------------------------------------------------------------| x1
F |*----------------------------------------------------------532--|
C |-------------------------------00~----------------------------03|

Verse (0:24)
D#|----------------------------------------------------------------|
A#|----------------------------------------------------------------| x2
F |------------------------------------------------5-5-5-5-2-2-2-2-|
C |0-0-0-0-0-0-0-0-5-5-5-5-3-3-3-3-0-0-0-0-0-0-0-0-----------------|

Prechorus (0:35)
D#|----------------------------------------------------------------|
A#|------------------------------------------------2-2-2-----------| x2
F |----------------2-2-2-2-3-3-3-3-0-0-0-0-0-0-0-0-------2-2-2-3-3-|
C |0-0-0-0-0-0-0-0-------------------------------------------------|

Verse (0:47) x2
Prechorus (0:58) x2
Chorus (1:10) x2

Guitar Solo I (1:33)
D#|----------------------------------------------------------------|
A#|----------------------------------------------------------------| x2
F |----------------3-3-3-3-5-5-5-5-----------------3-3-3-3-5-5-5-5-|
C |0-0-0-0-0-0-0-0-----------------0-0-0-0-0-0-0-0-----------------|

Bridge (1:45)
D#|----------------------------------------------------------------|
A#|----------------------------------------------------------------|
F |--------------------------------3-3-*-3-3-*-3-3-5-5-5-5-5-5-----|
C |0-0-*-0-0-*-0-0-0-0-*-0-0-*-0-0-----------------------------0-3-|
  |                                                                | x1
D#|----------------------------------------------------------------|
A#|----------------------------------------------------------------|
F |--------------------------------3-3-*-3-3-*-3-3-5-5-5-5-5-5-5-5-|
C |0-0-*-0-0-*-0-0-0-0-*-0-0-*-0-0---------------------------------|

Guitar Solo II (1:56)
D#|----------------------------------------------------------------|
A#|----------------------------------------------------------------| x2
F |------------5-5-5-5-5-5-7-7-7-7-------------5-5-5-5-------------|
C |0-0-0-0-0-0---------------------0-0-0-0-0-0---------3-3-3-3-3-3-|

Guitar Solo I (2:08) x2
Verse (2:19) x2
Prechorus (2:31) x2 (don't play last 2 notes)
Chorus (2:42) x2

Outro (3:06)
D#|-----------------------------|
A#|-----------------------------| x1
F |0---0-2---2-3----------------|
C |------------------0-0-0-0-*--|
Show more