sponsored links
In Flames 
The Jester's Dance
The Jester Race

Tabbed by: Emil Lindström
Hotmail: Lindmeister90@hotmail.com
Tuning: 2 Steps Down (C F A# D# G C)

Intro x4
|-----------------------------------------------|
|-----------------------------------------------|
|----9-7---------9-7----------9-10-7-9-10-7-9---|
|--7-----10----------10-------------------------|
|--------------8-----------10-------------------|
|-----------------------------------------------|

Riff A x2
|-----------------------------------------------------|
|-----------------------------------------------------|
|----9-7-------9-7--------9-10-7----9-10-7-9-10-7-9---|
|--7-----10--------10---------------------------------|
|------------8---------10--------10-------------------|
|-----------------------------------------------------|

Riff B
|----------------------------12-10-12---12-10-12----12-10-12-13-12-10--------
|-------------------------10----------13---------10-------------------12-----
|-12~-------------------------------------------------------------------12~--
|--------10-12-9--9-7-5------------------------------------------------------
|----/12---------------------------------------------------------------------
|----------------------------------------------------------------------------

Riff B cont.       Hold until Riff C 
|----------------10/12~----|
|-6---6-8-6-8/10-----------|
|---9----------------------|
|--------------------------|
|--------------------------|
|--------------------------|

Riff Ca. 
|------------------|
|-------3---3-5----|
|-5-4-5---5--------|
|------------------|
|------------------|
|------------------|

Riff Cb. x2
|------------------------------------------------------------------|
|-5----3-----5---5-----3-----5---6-----5-----3---------3-5-3-------|
|------------------------------------------------5-4-5-------5-4---|
|------------------------------------------------------------------|
|--0-0---0-0---0---0-0---0-0---0---0-0---0-0-----------------------|
|------------------------------------------------------------------|
   . .   . .   .   . .   . .   .   . .   . .

Intro x2

Riff D x2
|-------------------------------------------------------------------------------|
|----------------------------------5-8~-----------------------------------5-8~--|
|-2-------2-0-2-4-2-0----------5-7-------2-------2-0-2-4-2-0----------5-7-------|
|-2-5-2-3-------------3-5-10-7-----------2-5-2-3-------------3-5-10-5-----------|
|-0-5-2-3-------------3-5-10-7-----------0-5-2-3-------------3-5-10-7-----------|
|---3-0-1-------------1-3-8--5-------------3-0-1-------------1-3-8--5-----------|
          . . . . . .          . . . .
Show more
sponsored links
sponsored links