• Song:

    The Quiet Place

  • Artist:

    In Flames

  • Album:

    Live in Jonkoping

Artist: In Flames
Album: Soundtrack To Your Escape
Song: The Quiet Place
Tabbed by: Andrew (theglorifiedmalcontent)

Tuning: 4 half-steps down, drop A# - A#, F, A#, D#

------------= Key =------------
h  hammer on        p  pull off
~  let ring         *  stop string
PM palm mute on . notes

I know that a 5-string is used (just check out
the awesome video for this song), but I changed
those small parts so you can still use a 4-string.

Chorus (0:28)
D#|----------------------------------------------------------------|
A#|----------------------------------------------------------------| x4
F |----------------------------------------------------------------|
A#|0-0-0-0-0-0-0-0-0-0-0-0-0-0-0-0-5-5-5-5-5-5-5-5-8-8-8-8-8-8-8-8-|

Small Fill (0:46)
D#|--------|
A#|--------| x4
F |--3---3-|
A#|0-------|

Verse (0:49)
D#|----------------------------------------------------------------|
A#|----------------------------------------------------------------| x2
F |---------------------------------------------------------3-3-3-3|
A#|0-0-*-----------5-5-*-----------0-0-*-----------5-5-*---0---0---|

Prechorus (1:07)
D#|----------------------------------------------------------------|
A#|----------------------------------------------------------------|
F |----------1---0-----------1---0---------------------------------|
A#|0---0-----------0---0-----------3---3-----3---3-3---3-----3---3-|
  |                                                                | x1
D#|----------------------------------------------------------------|
A#|----------------------------------------------------------------|
F |----------1---0-----------1---0-----------------3-3-3-3-0-0-0-0-|
A#|0---0-----------0---0-----------3---3-----3---3-----------------|
PM                                                 . . . . . . . .

Chorus (1:16) x4
Rest (1:34)
Verse (1:37) x2
Prechorus (1:55) x1
Chorus (2:04) x4

Bridge (2:23)
D#|----------------------------------------------------------------|
A#|----------------------------------------------------------------|
F |----------------------------------------------------------------|
A#|0-0-*-----------0-0-*-----------0-0-*-----------0-0-*-------8\|
PM                                 . .                             |
D#|----------------------------------------------------------------|
A#|----------------------------------------------------------------|
F |----------------------------------------------------------------|
A#|5---5-----5---5-5---5-----3---3-5---5-----5---5-5---5-----8---8-|
  |                                                                | x1
D#|----------------------------------------------------------------|
A#|----------------------------------------------------------------|
F |----------------------------------------------------------------|
A#|5---5-----5---5-5---5-----3---3-5---5-----5---5-8-8-8-8-3-3-3-3-|
  |                                                                |
D#|----------------------------------------------------------------|
A#|----------------------------------------------------------------|
F |----------------------------------------------------------------|
A#|0~~~~~~-~~~~~-~~~~-~~~-~~-~-------------------------------------|

Chorus (2:50) x6
Small Fill (3:18) x4

Outro (3:20)
D#|----------------|
A#|----------------| x1
F |----------------|
A#|0---0---*-------|
PM .   .
Show more