• Song:

    The Quiet Place

  • Artist:

    In Flames

  • Album:

    Live in Jonkoping

This is how I play it in my band, it's not nessisarily 100% correct but it sounds awesome, my band jsut does this in dropped D tuning and it sounds awesome. I couldn't find a 4 string version for this song on the net

Dropped D in C standard Tuning 

I play the Synth Intro with a Wah, and the brackets are harmonics.

Synth Intro
G|---------------------------------------|
D|--[12]------15----[12]------12-------| x 3
A|------------13-------------10-------|
D|--[12]------------[12]--------------|

Verse
G|--------------------------------------------------------------------------------------------------------------------------------------------|
D|--------------------------------------------------------------------------------------------------------------------------------------------| x 2
A|--------------------------------------------------------------------------------------------------------------------------------------------|
D|--0---0---0-0--0---0---0---0-0--5---5---5-5--8---8--8-8--0---0---0-0--0---0---0---0-0--5---5---5--5--3---3---3--3-|

G|----------------------------------------------|
D|----------------------------------------------|
A|----------------------------------------------|
D|--8--8--0--8--8--0--8--8--0--8--8--0-|

Chorus
G|------------------------------------------------------------------|
D|------------------------------------------------------------------|
A|---------------------------------------------3--3-----3--3-----| x 2
D|-0--0--------5--5--------0--0---5--5-----------0--------0--|

G|-----------------------------------------------------------------|
D|-----------------------------------------------------------------|
A|-----------------------------------------------------------------|
D|--0--0---0-/8---0--0--0-/8--3--3--3--3--3--3---3---3-|


Verse

Chorus

G|------------------------------------------------------------------------------------------|
D|------------------------------------------------------------------------------------------|
A|------------------------------------------------------------------------------------------|
D|--10---5---5---5--5--5--5-5-5--5-5-5--3---5--5--5--5-5-5-5-5-3--xxxx-|

Verse
Show more