• Song:

    Touch Of Red

  • Artist:

    In Flames

  • Album:

    2004-06-12: Sweden Rock...

Artist: In Flames
Album: Soundtrack To Your Escape
Song: Touch Of Red
Tabbed by: Andrew (theglorifiedmalcontent)

Tuning: 4 half-steps down, drop A# - A#, F, A#, D#

------------= Key =------------
h  hammer on        p  pull off
~  let ring         *  stop string

Intro I (0:00)
D#|--------------------------------|    |--------------------------------|
A#|--------------------------------| x3 |--------------------------------| x1
F |------1p0-----------------------|    |------1p0-----------------------|
A#|0h2h3-----0h2h3-6p5-2p0h2p0h2p0-|    |0h2h3-----0h2h3-6p5-3-1-*-------|

Intro II (0:09)
D#|--------------------------------|    |--------------------------------|
A#|--------------------------------| x3 |--------------------------------| x1
F |------1p0-----------------------|    |------1p0-----------------------|
A#|0h2h3-----0h2h3-6p5-2p0h2p0h2p0-|    |0h2h3-----0h2h3-6p5-3-1-1-1-1-1-|

Verse I (0:19)
D#|--------------------------------|
A#|--------------------------------| x4
F |------5-------1---------1-1-0---|
A#|0-0-0---0-0-0---0-0-0-3-------3-|

Verse II (0:29)
D#|----------------------------------------------------------------|
A#|----------------------------------------------------------------| x2
F |--------------------------------------------------------1p0-----|
A#|5-5-5-5-5-5-5-5-5-5-5-5-5-5-5-5-5-5-5-5-5-5-5-5-5-0h3h5-----3p0-|

Verse I (0:38) x2
Verse II (0:43) x2

Chorus (0:53)
D#|----------------------------------------------------------------|
A#|----------------------------------------------------------------|
F |----------------------------------------------------------------|
A#|3-3-3-3-3-3-3-3-5-5-5-5-5-5-5-5-0-0-0-0-0-0-0-0-8-8-8-8-8-8-8-8-|
  |                                                                | x2
D#|----------------------------------------------------------------|
A#|----------------------------------------------------------------|
F |----------------------------------------------------------------|
A#|3-3-3-3-3-3-3-3-5-5-5-5-5-5-5-5-0-0-0-0-0-0-0-0-1-1-1-1-1-1-1-1-|

Postchorus I (1:12)
D#|------------------------------------------------|
A#|------------------------------------------------| x1
F |------------------------------------------------|
A#|1-1-1-1-1-1-1-1-0~~~~~-~~~~-~~~-~~-~------------|

Verse II (1:15) x2
Chorus (1:25) x2

Postchorus II (1:44)
D#|----------------|
A#|----------------| x1
F |----------------|
A#|1-1-1-1-1-1-1-1-|

Bridge (1:45)
D#|----------------------------------------------------------------|
A#|----------------------------------------------------------------|
F |--------------------------------------------------3-3-3-3-3-3-3-|
A#|2-2p0h2-2-2-2-2-2-2-2-2-2-2-2-2-7-7p5h7-7-7-7-7-7---------------|
  |                                                                | x1
D#|----------------------------------------------------------------|
A#|----------------------------------------------------------------|
F |----------------------------------------------------------------|
A#|2-2p0h2-2-2-2-2-2-2-2-2-2-2-2-2-7-7p5h7-7-7-7-7-7-5-5-5-5-5-5-5-|

Interlude (1:55)
D#|----------------------------------------------------------------|
A#|----------------------------------------------------------------| x1
F |0-------3---1---------------3-------------------1-------3-------|
A#|----------------5-------3-------0-------2-----------------------|

Chorus (2:14) x2
Postchorus II (2:34) x2

Outro II (2:36)
D#|--------------------------------|    |------------------------------------------------|
A#|--------------------------------| x3 |------------------------------------------------| x1
F |------1p0-----------------------|    |------1p0---------------------------------------|
A#|0h2h3-----0h2h3-6p5-2p0h2p0h2p0-|    |0h2h3-----0h2h3-6p5-3-1-1-1-1-1*--------1-1-1-1*|
Show more