• Song:

    Trigger

  • Artist:

    In Flames

  • Album:

    2004-06-12: Sweden Rock...

Artist: In Flames
Album: Reroute To Remain
Song: Trigger
Tabbed by: Andrew (theglorifiedmalcontent)

Tuning: 4 half-steps down - C, F, A#, D#

This song has been slightly modified for 4-string basses,
since the tab I looked at was for 5-string and very difficult
to read; this one should be better. (Also, the spacings of the
notes somewhat match the timing in the song.) Enjoy!

Intro (0:00)
D#|----------------------------------------------------------------|
A#|------------------------000-----------------------------000-----| x2
F |--------33300000-----------22222--------33300000---00000---22222|
C |00000000--------00000000--------00033333--------000-------------|

Verse I (0:21)           Verse II (0:31)
D#|----------------|     D#|--------------------------------|
A#|----------------| x4  A#|--------------------------------| x1
F |----------------|     F |----------------------3333333333|
C |0000000000000000|     C |0-000-00000000000-000-----------|

Verse I (0:36) x2
Verse II (0:42) x1

Verse III (0:47)
D#|----------------------------------------------------------------|
A#|----------------------------------------------------------------| x1
F |33333333333332-----------------3-3333333333332------------------|
C |--------------30-00000000000000---------------30-000000000000000|

Verse IV (0:57)
D#|------------------------------------------------|
A#|------------------------------------------------| x1
F |33333333333332-----------------3-3333333--------|
C |--------------30-00000000000000---------22222222|

Verse I (1:05) x2
Verse II (1:10) x1
Verse I (1:15) x2
Verse II (1:21) x1
Verse III (1:26) x1

Prechorus (1:36)
D#|----------------------------------------------------------------|
A#|------------------------------------------------000000000-------| x1
F |33333333333332-----------------3-333333333333333----------------|
C |--------------30-00000000000000---------------------------------|

Chorus (1:47)
D#|----------------------------------------------------------------|
A#|---------------------------0------------------------------------| x2
F |2-------0--3----2---------------2-------0--3----2---3--0----2---|
C |------------------------3---------------------------------------|

Verse I (2:08) x2
Verse II (2:13) x1

Rest (2:18)
D#|----------------|
A#|----------------| x1
F |----------------|
C |----------------|

Chorus (2:28) x2

Postchorus (2:49)
D#|----------------|
A#|----------------| x1
F |3333333300022222|
C |----------------|

Guitar Solo I (2:51)
D#|--------------------------------|
A#|--------0-----------------------| x2
F |-----------0------------0--2----|
C |0--3------------0--3------------|

Guitar Solo II (3:02)
D#|----------------------------------------------------------------|
A#|-----------0------------2------------------0------------00001111| x1
F |--------3------------------3------------3----------3------------|
C |0---------------0---------------0---------------0---------------|

Bridge (3:12)
D#|----------------------------------------------------------------|
A#|------------------------000--------------------------------00000| x2
F |--------33300000-----------22222--------33300000---00000333-----|
C |00000000--------00000000--------00033333--------000-------------|

Rest (3:23) x1
Chorus (3:33) x4
Chorus (4:14) repeat until fadeout
Show more