• Song:

    Varmlandsvisan

  • Artist:

    In Flames

  • Album:

    The Quiet Place

In Flames
Varmlandsvisan


/=Slide
h=hammer on
p=pull off
Standard tuning 

Riff 1: 
e----------------------------| part B |1C |
b----------------------------|--------|---|
g-7?9-10---------------------|--------|---|
D-------7-9-9----------------|--------|---|
A------------9-12-12-10-10-8-|h10p8---|h10|
E----------------------------|--------|---|


Riff 2: 
e------------------------------| part B |
b------------------------------|--------|
g-------------10-10---9-9-10-7-|--------|
D-9-9-7-7-10-9-----9-7---------|-0------|
A------------------------------|--------|
E------------------------------|--------|



Riff 3:
e-----------------------|-3B-|-------------|
b-----------------------|----|-------------|
g-9/10-10-10-14-14-14-12|-12-|-10-9-10-7-9-|
D-----------------------|----|-------------|
A-----------------------|----|-------------|
E-----------------------|----|-------------|


Riff 4:
e----------------------| 4B |
b----------------------|----|
g-7-9-10---------9-10-7|-6--|
D-------7-9-7h9p7------|----|
A----------------------|----|
E----------------------|----|

Song Order-
	Riff	1-1B	2-2B	1-1B	2	3-3C-3D
	Riff	1-1C	4-4B	1-1B	2	3-3B-3C
	Riff	1-1B	2	4

Any problems/corrections, email me, Mask_of_Sanity320@hotmail.com
Peace out, Lotto
Show more