• Song:

    Girlfriend

  • Artist:

    In Harms Way

Intro 
e|--pm.................................--------------------------------------| 
B|---------------------------------------------------------------------------| 
G|---------------------------------------x3----------------------------------| 
D|---------------------------------------------------------------------------| 
A|-33333333------------------------------------------------------------------| 
E|----------33333333-11111111-33333333---------------------------------------| 

e|---------------------------------------------------------------------------| 
B|---------------------------------------------------------------------------| 
G|-55555555-----------------------------x2-----------------------------------| 
D|-55555555-55555555-77777777-33333333---------------------------------------| 
A|-33333333-55555555-77777777-33333333---------------------------------------| 
E|----------33333333-55555555-11111111---------------------------------------| 

e|---------------------------------------------------------------------------| 
B|-----------------------------x2--------------------------------------------| 
G|-55------------------------------------------------------------------------| 
D|-55-3h5-555555-77-----333333-----------------------------------------------| 
A|-33-----555555-77-5h7-333333-----------------------------------------------| 
E|--------333333-55-----111111-----------------------------------------------| 
verse pm------------------------------ 
e|---------------------------------------------------------------------------| 
B|---------------------------------------------------------------------------| 
G|--------------------------------------x2-5---------------------------------| 
D|-----------------------------------------5-ring----------------------------| 
A|-33333333--------------------------------3---------------------------------| 
E|----------33333333-11111111-33333333---------------------------------------| 
fade in 
e|---------------------------------------------------------------------------| 
B|---pm....-----------------------x2-----------------------------------------| 
G|-5-555555---------pm....---------------------------------------------------| 
D|-5-555555-5-5-5-7-777777-3-3-3---------------------------------------------| 
A|-3-333333-5-5-5-7-777777-3-3-3---------------------------------------------| 
E|----------3-3-3-5-555555-1-1-1---------------------------------------------| 
chorus 
e|---------------------------------------------------------------------------| 
B|-----------------------------------------x6--------------------------------| 
G|-555555555-----------------------------------------------------------------| 
D|-555555555-55555555-77777777-33333333--------------------------------------| 
A|-333333333-55555555-77777777-33333333--------------------------------------| 
E|-----------33333333-55555555-11111111--------------------------------------| 
versepm................................. 
e|---------------------------------------------------------------------------| 
B|---------------------------------------------------------------------------| 
G|------------------------------------x4-5-----------------------------------| 
D|---------------------------------------5--ring-----------------------------| 
A|-33333333------------------------------3-----------------------------------| 
E|---------33333333-55555555-11111111----------------------------------------| 
fade in 
e|---------------------------------------------------------------------------| 
B|---pm---pm---------------------x2------------------------------------------| 
G|-5-55-5-55-------pm---pm---------------------------------------------------| 
D|-5-55-5-55-555-7-77-7-77-333-----------------------------------------------| 
A|-3-33-3-33-555-7-77-7-77-333-----------------------------------------------| 
E|-----------333-5-55-5-55-111-----------------------------------------------| 

chorus 
solo 
e|---------------------------------------------------------------------------| 
B|---pm---pm-----------------------------------------------------------------| 
G|-5-55-5-5------------pm-----p----------------------------------------------| 
D|-5-55-5-5-5-5-5-55-7-77-7-7-3-3-3-33---------------------------------------| 
A|-3-33-3-3-5-5-5-55-7-77-7-7-3-3-3-33---------------------------------------| 
E|----------3-3-3-33-5-55-5-5-1-1-1-11---------------------------------------| 

e|---------------------------------------------------------------------------| 
B|---pm---.------------..-------.......--------------------------------------| 
G|-5-55-5-5------------------------------------------------------------------| 
D|-5-55-5-5-5-5-5-55-7-77-7-7-3-3333333--------------------------------------| 
A|-3-33-3-3-5-5-5-55-7-77-7-7-3-3333333--------------------------------------| 
E|----------3-3-3-33-5-55-5-5-1-1111111--------------------------------------| 

e|---------------------------------------------------------------------------| 
B|---pm---.------------------------------------------------------------------| 
G|-5-55-5-5------------..-----.----------------------------------------------- 
D|-5-55-5-5-5-5-5-55-7-77-7-7-3-3-3-33--------------------------------------- 
A|-3-33-3-3-5-5-5-55-7-77-7-7-3-3-3-33----------------------------------| 
E|----------3-3-3-33-5-55-5-5-1-1-1-11-------------------------------------| 

e|---------------------------------------------------------------------------| 
B|---pm---.----------------------------------------------------------------| 
G|-5-55-5-5------------..------pickslide-------------------------------------| 
D|-5-55-5-5-5-5-5-55-7-77-7-7------------------------------------------------| 
A|-3-33-3-3-5-5-5-55-7-77-7-7------------------------------------------------| 
E|----------3-3-3-33-5-55-5-5------------------------------------------------|
Show more