• Song:

    The Fever

  • Artist:

    In Passing

Song- The Fever
Band- In Passing

ok i sw these guys in concert with some othr kik ass bands like
earning your red wings, gladstone, and rory and i met the drummer
at church and we talkd for a little while. the come from brandon,
florida but now they moved to PA and there on tour with there LP
out. you kn check out this band at www.inpassing.net or at 
www.purevolume.com where u kn listen to some of there stuff.
also u kn go there and listen to those othr bands cuz if u like 
these guys i bet ull like them too.

Besides the intro end this tab is about 80 some % correct.
And if its not well its good enough for me

   Intro
[|----|     |---|    |---|     |---|     ]
[|----|     |---|    |---|     |---|     ]
[|----|     |---|    |---|     |---|     ]
[|-11-| x16 |-9-| x3 |-8-| x13 |-7-| x32 ]   x2
[|--9-|     |-7-|    |-6-|     |-5-|     ]
[|----|     |---|    |---|     |---|     ]
PM.......................................

   Intro End
|-------|
|-------|
|-------|
|-9---7-|
|-7-7-5-|
|---5---| 

   Pre-Verse
STRUM 
[|----| |-----| |---|   |-------------|]
[|----| |-----| |---|   |-------------|]
[|-11-| |-9-8-| |-6-|   |-11-9-6-11-7-|]
[|-11-| |-9-8-| |-7-|   |-11-9-7-11-7-|]  x2
[|--9-| |-7-6-| |-5-|   |--9-7-5--9-9-|]
[|----| |-----| |---|   |-------------|]

   Verse
(Lead)     {Rythem is same as intro.}
|---7---12--------12-------------|
|--5---5---9-10-7----10-9-9-10---|
|-6---6------------------------9-|
|--------------------------------| x2
|--------------------------------|
|--------------------------------|

   Pre-Chorus
|-------| |-----|
|-------| |-----|
|-------| |-----|
|-9---7-| |-2-2-|
|-7-7-5-| |-2-2-|
|---5---| |-0-0-|
PM         .....

   Chorus
[|---|    |---|    |---------------------------------|]
[|---|    |---|    |---------------------------------|]
[|-7-|    |---|    |---------4-4-6-6---------9-9-6-6-|]
[|-7-| x8 |-7-| x8 |-2-2-2-2-4-4-6-6-2-2-2-2-9-9-6-6-|] x2
[|-5-|    |-7-|    |-2-2-2-2-2-2-4-4-2-2-2-2-7-7-4-4-|]
[|---|    |-5-|    |-0-0-0-0---------0-0-0-0---------|]
PM                   .......         .......  
|-------------------| |-----|
|-------------------| |-----|
|---------4-4-6-6---| |-9-9-|
|-2-2-2-2-4-4-6-6---| |-9-9-|
|-2-2-2-2-2-2-4-4---| |-7-7-|
|-0-0-0-0---------0-| |-----|
PM.......         .

   -Verse-

   -Chorus-

   Bridge
|-------------|
|-------------|
|---------6-6-|
|---------6-6-|
|---------4-4-| x24
|-0-0-0-0-----|
PM.......

   (Lead)
|-0--|
|--2-|
|----|
|----| Plsy like a bagillion times
|----|
|----|

  -After Bridge-
(Same as Intro End)
     
   -Pre-Chorus 2-
|---|
|---|
|-7-|
|-7-| x16
|-5-|
|---|
PM...

   -Chorus-

End on the |-----| at the end of the Chorus
           |-----|
           |-9-9-|
           |-9-9-|
           |-7-7-|
           |-----|
Show more