• Song:

    Is It On

  • Artist:

    Itchy Poopzkid

  • Album:

    Lights Out London

Hey Guys, this is the Tab to "Is it on"

PLEASE READ THIS FIRST!

This song has a hard bass line. But in my opinion it's better to play it one octave higher,
because it sound better and you don't have to tune it half step down. If you want to 
play it "normaly", you can translate it.
The notes are correct.

Please rate this song, but don't be so strict, I gave my best! :) :D

Intro
G|--------56-------|
D|---4-56----56--4-|
A|-47-4--4--4--47-4| 2x
E|-----------------|

Verse (same as Intro)
G|--------56-------|
D|---4-56----56--4-|
A|-47-4--4--4--47-4| 2x
E|-----------------|

G|--------56-------|-------4-444-44-|
D|---4-56----56--46|-666-66---------|
A|-47-4--4--4--47--|----------------|
E|-----------------|----------------|

Chorus
G|-----------------|-----------------|-----------------|-----------------|
D|-2-2-2-2-2-2-2-2-|-2-2-2-2-2-2-2-2-|-----------------|-------------1-1-|
A|-----------------|-----------------|-----------------|-----------------|
E|-----------------|-----------------|-4-4-4-4-4-4-4-4-|-4-4-2-2-0-0-----|

G|-----------------|-----------------|-----------|---------|
D|-----------------|-----------------|-----------|---------|
A|-4-4-4-4-4-4-4-4-|-4-4-4-4-4-4-4-4-|-----------|---------|
E|-----------------|-----------------|-555-555-55|7-777-777|

End on
G|------|
D|--4---|
A|47-4~~|
E|------|


Order:
Intro
Verse 2x
Chorus 2x
Verse 2x
Chorus 2x
Pause
Verse
Chorus 3x (First Time Chorus: D|-2~~~~~~~|(2)~~~~~~|)
End on
Show more