• Song:

    Milk Teeth

  • Artist:

    Japanese Voyeurs

http://www.japanesevoyeurs.com/

this is my first tab, dont be too harsh :) comment any corrections, they will be appreciated!!

VERSE
G---2--2----------|---2--2------------|
D---------------4-|-------------------|
A-0--0-------0-3--|-0--0------------3-|
E----------2------|-----------2-0-2---|

PRE CHORUS
"Milk teeth, Fresh meat."
G-------------------|
D-------------------|
A-----------------3-|
E-0h2-0h2-0h2-0h2---|

CHORUS
G----------------------------|
D----------------------------|
A-0-0-0-0------------------4-|
E----------2-2-2-2-0-0-0-0---|

BRIDGE
G--------------------------------|
D--------------------------------|
A--------------------------------|
E-5-5-5-5/8--2--5-5-5-5\2--3-3-3-|

OUTRO CHORUS
G---------------------------|
D---------------------------|
A-4-4-4-4-----------------0-|
E---------0-0-0-0-2-2-2-2---|

enjoy :)
Show more