Relatively simple.  I don't know why it took so long for anyone to tab this out.
Well, enjoy it here.  Email me if you have any questions/comments/etc.
guitargod6187@yahoo.com


E ---------------------------------------------------------|
B ---------5-------------------5---3---------------5-------|
G -------2-----4-------------2-------------------2-----4---|
D -----2-------------------2-------0-----------2-----------|
A ---0-----------------------------------------------------|
E -------------4---------2-------------------2---------4---|

E ---------------------------------------------------------|
B ---------------------------------------------------------|
G -------2-----2-------------------------------------------|
D -----2-----2---------------------------------------------|
A ---0-----4-----5-----------------------------------------|
E ---------------------------------------------------------|

There ya go.  You can go from there.  Not too hard
Show more