Gone through what's been around, spent a day listening over and over.
Improved, more accurate, better sound - enjoy (if u like it rate it)


I suggest you listen to it, to figure out the rythm.
"http://www.youtube.com/watch?v=W26cOn_LexY" - YouTube - 'acoustic' only.


----------------------------------------------------------------------------
                      BEAUTIFUL SOUL - Jesse McCartney
----------------------------------------------------------------------------

Tabbed by: The Met
Email: metlink_enjoytheride(@)yahoo(dot)com

Tuning: Standard


Intro/1st Verse:

E|-------0-----------x-----------0------------x----------0----------x--|
B|-------------0-----x------------------3-----x-----------------0---x--|
G|-----2-------4-----x---------2--------2-----x--------2--------4---x--|
D|---2---------2-----x-------2----------0-----x------2----------2---x--|
A|-0-----------x-----x------------------0-----x-----------------x---x--|
E|-------------4-----x----2-------------------x----2------------4---x--|

E|--------------------------|
B|--------------------------|
G|-----------2------2----2--|
D|---------2------2------0--| (x1 intro, x2 verse)
A|-------0------4-----------|
E|--------------------------|


2nd Verse:

E|------x--------x-----x----------|
B|------x--------x-----x----------|
G|------x--------x--6--x-7--------|
D|---7--x--6--7--x--7--x-7----6---| x5
A|---7--x--7--7--x--4--x-5----7---|
E|---5--x--4--5--x-----x------4---|

(alternate/simpler)

E|------x--------x-----x----------|
B|------x--------x-----x----------|
G|------x--------x--7--x-7--------|
D|---7--x--7--7--x--7--x-7----7---| x5
A|---7--x--7--7--x--4--x-5----7---|
E|---5--x--4--5--x-----x------4---|


Chorus:
(strum)

E|---5--5---4------2--2---5------2--2---4------5--5---5--|
B|---5--5---5------3--3---5------3--3---5------5--5---5--|
G|---6--6---4------2--2---7------2--2---4------6--6---7--|
D|---7--7---6------4--4---7------4--4---6------7--7---7--|  x2
A|---7--7---7------5--5---5------5--5---7------7--7---5--|
E|---5--5---4------2--2----------2--2---4------5--5------|


3rd Verse 

E|------x--------x-----x----------|
B|------x--------x-----x----------|
G|------x--------x--6--x-7--------|
D|---7--x--6--7--x--7--x-7----6---| x5
A|---7--x--7--7--x--4--x-5----7---|
E|---5--x--4--5--x-----x------4---|


Chorus


Bridge
(tricky bit - you have to 'feel' the music.)
  
  
/    \/ \/  \/   \/ /\ \/ /\ \/ /\  /\ \/
| E|-x---2---2---x--x---2--2--2--2---x--2-----|
| B|-x---2---2---x--x---2--2--2--2---x--2-----|
| G|-x---2---2---x--x---2--2--2--2---x--2-----| x3
| D|-x---4---4---x--x---4--4--4--4---x--4-----|
| A|-x---4---4---x--x---4--4--4--4---x--4-----|
| E|-x---2---2---x--x---2--2--2--2---x--2-----|
\
                                       \
E|-x---2---2---4---4----5---5---5----|  |
B|-x---2---2---5---5----5---5---5----|  |
G|-x---2---2---4---4----7---7---7----|  | x2 (whole bridge section
D|-x---4---4---6---6----7---7---7----|  |
A|-x---4---4---7---7----5---5---5----|  |
E|-x---2---2---4---4-----------------|  |
                                        /


Chorus
(Play 'intro' style once, then 'verse' style)


Outro
(fade out, play 'intro' style)
Show more