• Song:

    Fire

  • Artist:

    Jimi Hendrix

  • Album:

    BBC Sessions

FIRE
As recorded by The Jimi Hendrix Experience
From the 1967 Album ARE YOU EXPERIENCED
Transcribed by tommygun123 "tommygun123@centrum.cz"
Words and Music by Jimi Hendrix

PLEASE, RATE THIS TAB. IT'S ONE OF MY FIRST TABS, SO I WANNA KNOW, HOW DOES IT LOOK LIKE. THANKS.

Gtr I (E A D G) - 'Standard'


 Intro
  Q=150
 1/4  4/4
  Gtr I
  Q    Q   H    E E   E E H    Q    Q   H    E E   E E Q.    E E E
|----|--------------|-------------|--------------|------------------||
|-6--|-5-------3-5-|----------6--|-5-------3-5-|------------------||
|----|--------------|-5-5---------|--------------|-5-5---------3-5--||
|----|--------------|-------------|--------------|----------/5------||


   1st Verse
   4/4
    E H..         H    E  E E E  5x E H..         W
||--------------|----------------||-------------|------||
||o-------------|---------------o||-------------|------||
||o-5-----------|-----------3-5-o||-5-----------|------||
||--------------|--------/5------||-------------|------||


   Chorus
    Q  Q  E E E E   +E  E E E E E E E   E E E E E E E E   +E  E E E E E E E
||----------------|-------------------|-----------------|---------------------||
||o---------------|-------------------|-----------------|--------------------o||
||o-5--5----------|-------2-2-3-3-4-4-|-5-5-5-5---------|-------2-2-3-3-4-4--o||
||--------2-3-4-5-|-(5)-5-------------|---------2-3-4-5-|-(5)-5---------------||


   2nd Verse
    E H..         H    E  E E E  5x E H..         W
||--------------|----------------||-------------|------||
||o-------------|---------------o||-------------|------||
||o-5-----------|-----------3-5-o||-5-----------|------||
||--------------|--------/5------||-------------|------||


   Chorus
    Q  Q  E E E E   +E  E E E E E E E   E E E E E E E E   +E  E E E E E E E
||----------------|-------------------|-----------------|---------------------||
||o---------------|-------------------|-----------------|--------------------o||
||o-5--5----------|-------2-2-3-3-4-4-|-5-5-5-5---------|-------2-2-3-3-4-4--o||
||--------2-3-4-5-|-(5)-5-------------|---------2-3-4-5-|-(5)-5---------------||


 Bridge
  Q  Q  Q  Q    Q  Q  Q  Q    Q  Q  Q  Q    Q  Q  Q  E E
|-------------|-------------|-------------|--------------|
|-------------|-------------|-------------|------------5-|
|-5--5--5--5--|-5--5--5--5--|-3--3--3--3--|-3--3--3--3---|
|-------------|-------------|-------------|--------------|


   Q  Q  Q  Q    Q  Q  Q  Q     Q  Q  Q  Q   Q  Q  Q  Q
|--------------|--------------|------------|--------------||
|-/7--7--7--7--|-7--7--7--7--|------------|--------------||
|--------------|--------------|-3--3--3--3-|-3--3--3--3---||
|--------------|--------------|------------|--------------||


 Guitar Solo
  Q  Q  E E E E   +E  E E E E E E E   Q  Q  E E E E   +E  E E E E E E E
|---------------|-------------------|---------------|-------------------|
|---------------|-------------------|---------------|-------------------|
|-7--7----------|-------4-4-5-5-6-6-|-7--7----------|-------4-4-5-5-6-6-|
|-------4-5-6-7-|-(7)-7-------------|-------4-5-6-7-|-(7)-7-------------|


  E E E E E E E E   +E  E E E E E E E   Q  E E E E E E   +E  E E E E E Q
|-----------------|-------------------|----------------|------------------||
|-----------------|-------------------|----------------|---------------6--||
|-7-7-7-7---------|-------4-4-5-5-6-6-|-7--7-7---------|-------4-4-5-5----||
|---------4-5-6-7-|-(7)-7-------------|--------4-5-6-7-|-(7)-7------------||


 Intro
  Q   H    E E   E E H    Q    Q   H    E E   E E Q.    E E E
|--------------|-------------|--------------|-----------------||
|-5-------3-5-|----------6--|-5-------3-5-|-----------------||
|--------------|-5-5---------|--------------|-5-5---------3-5-||
|--------------|-------------|--------------|----------/5-----||


   3rd Verse
    E H..         H    E  E E E     E H..         W
||--------------|----------------||-------------|------||
||o-------------|---------------o||-------------|------||
||o-5-----------|-----------3-5-o||-5-----------|------||
||--------------|--------/5------||-------------|------||


 Chorus & Solo
  Q  Q  E E E E   +E  E E E E E E E   Q  Q  E E E E   +E  E E E E E E E
|---------------|-------------------|---------------|-------------------|
|---------------|-------------------|---------------|-------------------|
|-5--5----------|-------2-2-3-3-4-4-|-5--5----------|-------2-2-3-3-4-4-|
|-------2-3-4-5-|-(5)-5-------------|-------2-3-4-5-|-(5)-5-------------|


  Q  Q  E E E E   +E  E E E E E E E   Q  Q  E E E E   +E  E E E E E E E
|---------------|-------------------|---------------|-------------------|
|---------------|-------------------|---------------|-------------------|
|-5--5----------|-------2-2-3-3-4-4-|-5--5----------|-------2-2-3-3-5-6-|
|-------2-3-4-5-|-(5)-5-------------|-------2-3-4-5-|-(5)-5-------------|


  E E E E E E E E   +E  E E E E E E E   E E E E E E E E   +E  E E E E E E E
|-----------------|-------------------|-----------------|-------------------|
|-----------------|-------------------|-----------------|-------------------|
|-7-7-7-7---------|-------4-4-5-5-6-6-|-7-7-7-7---------|-------4-4-5-5-3-4-|
|---------4-5-6-7-|-(7)-7-------------|---------4-5-6-7-|-(7)-7-------------|


   E E E E E E E E   +E  E E E E E E E   E E E E E E E E   +E  E E E E E E E
|------------------|-------------------|-----------------|-------------------|
|------------------|-------------------|-----------------|-------------------|
|-/5-5-5-5---------|-------2-2-3-3-4-4-|-5-5-5-5---------|-------2-2-3-3-4-4-|
|----------2-3-4-5-|-(5)-5-------------|---------2-3-4-5-|-(5)-5-------------|


  E E E E E E E E   +E  E E E E E E E   E E E E E E E E   +E  E E E E E Q
|-----------------|-------------------|-----------------|------------------|
|-----------------|-------------------|-----------------|---------------6--|
|-7-7-7-7---------|-------4-4-5-5-6-6-|-7-7-7-7---------|-------4-4-5-5----|
|---------4-5-6-7-|-(7)-7-------------|---------4-5-6-7-|-(7)-7------------|

  (FADE OUT)
  Q   H    E E   Q  H.        Q  Q  E E E E   +E  E E E E E E E
|--------------|------------|---------------|-------------------||
|-5-------3-5-|------------|---------------|-------------------||
|--------------|-5----------|-5--5----------|-------2-2-3-3-4-4-||
|--------------|------------|-------2-3-4-5-|-(5)-5-------------||

Duration Legend
---------------
W - whole; H - half; Q - quarter; E - 8th; S - 16th; T - 32nd; X - 64th; a - acciaccatura
+ - note tied to previous; . - note dotted; .. - note double dotted
Uncapitalized letters represent notes that are staccato (1/2 duration)
Irregular groupings are notated above the duration line
Duration letters will always appear directly above the note/fret number it represents the
duration for.  Duration letters with no fret number below them represent rests.  Multi-
bar rests are notated in the form Wxn, where n is the number of bars to rest for.  Low
melody durations appear below the staff

Tablature Legend
----------------
 h   - hammer-on
 p   - pull-off
 b   - bend
 pb  - pre-bend
 r   - bend release (if no number after the r, then release immediately)
 /  - slide into or out of (from/to "nowhere")
 s   - legato slide
 S   - shift slide
 - natural harmonic
[n]  - artificial harmonic
n(n) - tapped harmonic
 ~   - vibrato
 tr  - trill
 T   - tap
 TP  - trem. picking
 PM  - palm muting
n/  - tremolo bar dip; n = amount to dip
 n  - tremolo bar down
 n/  - tremolo bar up
/n  - tremolo bar inverted dip
 =   - hold bend; also acts as connecting device for hammers/pulls
 <> - volume swell (louder/softer)
 x   - on rhythm slash represents muted slash
 o   - on rhythm slash represents single note slash

Misc Legend
-----------
 |  - bar
||  - double bar
||o - repeat start
o|| - repeat end
*|  - double bar (ending)
 :  - bar (freetime)
 $  - Segno
 &  - Coda
Tempo markers -  = BPM(8/16=s8/s16), where s8 = swing 8ths, s16 = swing 16ths
Show more