• Song:

    Fire

  • Artist:

    Jimi Hendrix

  • Album:

    BBC Sessions

-------------------------------------------------------------------------------
			     Fire - Jimi HENDRIX
-------------------------------------------------------------------------------

Tabbed By : Mysticwave_2

Tuning:EADG

Intro
G|--------------|---------------|
D|-6-5\---35----|-6-5\---35-----|
A|----------55\-|----------55\--|
E|--------------|---------------|

Verse 1
G| ---------- |
D|*----------*|
A|*----355---*|x6
E| ---5------ |

Chorus
G|------------------|-------------------|------------------|--------------------|
D|------------------|-------------------|------------------|--------------------|
A|--5-5------223344-|--5555------223344-|--5-5------223344-|--5555------223344-5|
E|-----2235-5-------|------2235-5-------|-----2235-5-------|-----2235-5---------|


Verse 2
G| ---------- |
D|*----------*|
A|*----355---*|x5
E| ---5------ |


Chorus
G|------------------|------------------|-------------------|-------------------|
D|------------------|------------------|-------------------|-------------------|
A|--5-5------223344-|--5-5------223344-|--5-5-------223344-|--5-5------223344--|
E|-----2235-5-------|-----2235-5-------|-----2235-5--------|-----2235-5--------|


Bridge				             12 not 1 - 2	     12 not 1 - 2
G|----------|----------|----------|----------|------------------|------------------|
D|----------|----------|----------|----------|------------------|------------------|
A|-55555555-|-55555555-|-33333333-|-33333333-|-1212121212121212-|-1212121212121212-|
E|----------|----------|----------|----------|------------------|------------------|

G|----------|------|
D|----------|------|
A|-33333333-|-3333-|
E|----------|------|


Solo
G|------------------|------------------|--------------------|----------------|
D|------------------|------------------|--------------------|----------------|
A|--7-7------445566-|--7-7------445566-|--7777-------445566-|--7-7------4455-|
E|-----4457-7-------|-----4457-7-------|------4457-7--------|-----4457-7-----|

Break
G|--------------|---------------|
D|-6-5\---35----|-6-5\---35-----|
A|----------55\-|----------55\--|
E|--------------|---------------|

Verse 3
G| ---------- |
D|*----------*|
A|*----355---*|x6
E| ---5------ |

Solo / Ending
G|------------------|------------------|------------------|-------------------|
D|------------------|------------------|------------------|-------------------|
A|--5-5------223344-|--5-5------223344-|--5-5------223344-|--5-5------223344--|
E|-----2235-5-------|-----2235-5-------|-----2235-5-------|-----2235-5--------|

G|-------------------|-------------------|-------------------|--------------------|
D|-------------------|-------------------|-------------------|--------------------|
A|--7777------445566-|--7777------445566-|--5555------223344-|--5555------223344--|
E|------4457-7-------|------4457-7-------|------2235-5-------|------2235-5--------|

Start to fade out, or continue till fingers bleed - then repeat (its a bit of improvisation from here on
though).
G|-------------------|-----------------|
D|-------------------|-----------------|
A|--7777------445566-|--7777------4455-|
E|------4457-7-------|------4457-7-----|

G|--------------|
D|-6-5\---35----|
A|----------55\-|
E|--------------|

G|------------------|------------------|
D|------------------|------------------|
A|--5-5------223344-|--5-5------223344-|
E|-----2235-5-------|-----2235-5-------|  


| *  Repeat
  *
| \  slide down

===============================================================================
Show more