• Song:

    Foxey lady

  • Artist:

    Jimi Hendrix

  • Album:

    BBC Sessions

Artist: Jimi Hendrix
 Song: Foxey Lady
 Album: Are You Experienced?
 Year: 1966
 Submitted By: Anthony

 h - hammer on
 p - pull-off
 / - slide up
  - slide down
 ~ - vibrato
 b - bend
 
 Standard Tuning (EADGBe)

	INTRO

 e|-------------------------------------------|
 B|-8p7h8p7h8p7h8p7h8p7h8p7h8p7h8p7h8p7h8/-0--|
 G|-------------------------------------------|
 D|-------------------------------------------|
 A|-------------------------------------------|
 E|-------------------------------------------| 
 
	MAIN RIFF
        
 e|--2--2---5——--5—-2—-2—--5—--5--2--2—--5----|
 B|--2--2---5----5--2--2---5---5--2--2---5----|
 G|--3--3---6----6--3--3---6---6--3--3---6----|
 D|—-4--4---7----7--4--4---7---7--4--4---7----|
 A|--4--4---7----7--4--4—--7---7--4--4---7----|
 E|--2--2---5----5--2—-2—--5---5--2--2---5----| 
 

 e|-------------------| Repeat the main riff 6 times
 B|-------------------|
 G|-------------------|
 D|----------0--------|
 A|-0-2-3—4-----------|
 E|-------------------| 
 
  (0:40)FILL 1

 e|-------------------------------------------| Repeat X3
 B|-------------------------------------------|
 G|—3—-3—-3-----1--1--------------------------|
 D|-4--4--4-----2--2--------------------------|
 A|-4--4--4-----2--2——0-2—3—4-----------------|
 E|-2--2--2-----0--0--------------------------| 
 
	
 e|------/9-5--/9—9--5----------------------|
 B|-------------------------------------------|
 G|—3-----------------------------------------|
 D|-4-----------------------------------------|
 A|-4-----------------------------------------|
 E|-2-----------------------------------------| 
	
	MAIN RIFF
        
 e|--2--2---5——--5—-2—-2—--5—--5--2--2—--5----|
 B|--2--2---5----5--2--2---5---5--2--2---5----|
 G|--3--3---6----6--3--3---6---6--3--3---6----|
 D|—-4--4---7----7--4--4---7---7--4--4---7----|
 A|--4--4---7----7--4--4—--7---7--4--4---7----|
 E|--2--2---5----5--2—-2—--5---5--2--2---5----| 
 

 e|-------------------| Repeat the main riff 6 times
 B|-------------------|
 G|-------------------|
 D|----------0--------|
 A|-0-2-3—4-----------|
 E|-------------------| 
	
	FILL 1
 
 e|-------------------------------------------| Repeat X3
 B|-------------------------------------------|
 G|—3—-3—-3-----1--1--------------------------|
 D|-4--4--4-----2--2--------------------------|
 A|-4--4--4-----2--2——0-2—3—4-----------------|
 E|-2--2--2-----0--0--------------------------| 
 
            SOLO

 e|-----/9-5-/9-9-5-----/14~~-14p12----------|
 B|-------------------------------------------|
 G|—3--------------------------------14~~-----|
 D|-4-----------------------------------------|
 A|-4-----------------------------------------|
 E|-2-----------------------------------------|
 

 e|-------------------------------------------|
 B|-------------------------------------------|
 G|-------------------------------------------|
 D|—/16-1614------11-11/16-----16-14-----/16-|
 A|------------12------------16---------16----|
 E|-------------------------------------------| 
 
 
 e|---------14-12/14------14/19-17------------|
 B|—14—14-------------14------------19 17-19--|
 G|-------------------------------------------|
 D|-------------------------------------------|
 A|-------------------------------------------|
 E|-------------------------------------------| 


 e|-17----------------------------------------|
 B|----19-17-------17-------17/19-19-17-------|
 G|----------18-18----18-18-------------18-16-|
 D|-------------------------------------------|
 A|-------------------------------------------|
 E|-------------------------------------------|
 
 	FILL 2
	
 e|-------------------------------------------|Repeat X3
 B|-------------------------------------------|
 G|—3—-3—-3-----1--1--------------------------|
 D|-4--4--4-----2--2-------0------------------|
 A|-4--4--4-----2--2——0-2—-—-2----------------|
 E|-2--2--2-----0--0------------2-------------| 
 

 e|-------------------------------------------|
 B|-8p7h8p7h8p7h8p7h8p7h8p7h8p7h8p7h8p7h8/0——-|
 G|-------------------------------------------|
 D|-------------------------------------------|
 A|-------------------------------------------|
 E|-------------------------------------------| 

            MAIN RIFF
 
 e|--2--2---5——--5—-2—-2—--5—--5--2--2—--5----|
 B|--2--2---5----5--2--2---5---5--2--2---5----|
 G|--3--3---6----6--3--3---6---6--3--3---6----|
 D|—-4--4---7----7--4--4---7---7--4--4---7----|
 A|--4--4---7----7--4--4—--7---7--4--4---7----|
 E|--2--2---5----5--2—-2—--5---5--2--2---5----| 
 

 e|-------------------| Repeat the main riff 8 times
 B|-------------------|
 G|-------------------|
 D|----------0--------|
 A|-0-2-3—4-----------|
 E|-------------------| 

 Hope You like it :-) Please Rate  
 Any questions email: banboon72toon@hotmail.com
Show more