• Song:

    Foxy Lady

  • Artist:

    Jimi Hendrix

  • Album:

    Experience Hendrix Box ...

vibrato         F#7(#9) - I think - or otherwise its F#m7
----------------|----5-x-----5-x-----5-5--------|
----------------|----5-x-----5-x-----5-5--------|
-16-------------|-------------------------------|
----------------|--------4-4--------------------|
----------------|--------------------------2-3-4|
------------162|2-2-------------2-2-----5------|
		 Thumb


F#7(#9)
----5-x-----5-x-----5-5--------|----5-x-----5-x-----5-5--------|
----5-x-----5-x-----5-5--------|----5-x-----5-x-----5-5--------|
-------------------------------|-------------------------------|
--------4-4--------------------|--------4-4--------------------|
--------------------------2-3-4|--------------------------2-3-4|
2-2-------------2-2-----5------|2-2-------------2-2-----5------|

				Now you know - you're a cute
				little heart-breaker


F#7(#9)
----5-x-----5-x-----5-5--------|----5-x-----5-x-----5-5---------|
----5-x-----5-x-----5-5--------|----5-x-----5-x-----5-5---------|
-------------------------------|---------------------------2h4p2|
--------4-4--------------------|--------4-4---------------------|
--------------------------2----|--------------------------2-----|
2-2-------------2-2-----5-----5|2-2-------------2-2-----5-------|

Fo-xy                           And you know, you're a sweet little
				love-maker


F#7(#9)                       B
----5-x-----5-x-----5-5--------------|
----5-x-----5-x-----5-5-------4-4-x-x|
------------------------------4-4-x-x|
--------4-4-------------4-----4-4-x-x|
--------------------------0-2-2-2-x-x|
2-2-------------2-2------------------|

Fo-xy



F#                E                    F#                E
2---2---x-x-x-2-2|0-------------------|2---2---x-x-x-2-2|0------------------|
2---2---x-x-x-2-2|0-------------------|2---2---x-x-x-2-2|0------------------|
3---3---x-x-x-3-3|1--------2/7-7-9-7--|3---3---x-x-x-3-3|1--------3b4-2-3---|
4---4---x-x-x-4-4|2--------2/7-------9|4---4---x-x-x-4-4|2-----------------4|
4---4---x-x-x-4-4|2-------------------|4---4---x-x-x-4-4|2------------------|
2---2---x-x-x-2-2|0-------------------|2---2---x-x-x-2-2|0------------------|
Thumb

I wana take you   Home                 I won't do you no Harm



F#                E                 F# - strike chord and then cut off sharply
2---2---x-x-x-2-2|0---0------------|2-------|
2---2---x-x-x-2-2|0---0------------|2-------|
3---3---x-x-x-3-3|1---1------------|3-------|
4---4---x-x-x-4-4|2---2-----0-2-0--|4-------|
4---4---x-x-x-4-4|2---2-0h2-------2|4-------|
2---2---x-x-x-2-2|0---0------------|2-------|
Thumb

You got to be all Mine              Oooh! foxy lady!


The second verse is played much the same as the first, but with different
embilishments is the chords - Hendrix seemed able to invent them on the spot.


The lead in to the solo goes like:


---------------------17b19-etc------------
/14----/14 /14----------------------------
----14---------14-------------------------
------------------16----------------------
------------------------------------------
------------------------------------------


just keep at it. and you will get it-also, singing along with it helps!
have a blast!
Show more