• Song:

    Foxy Lady

  • Artist:

    Jimi Hendrix

  • Album:

    Experience Hendrix Box ...

FTH80:G D A E ; Generated by Fast Tab, do not erase
====================
From            : Lowend  "Bassk8er99@yahoo.com"
Artist          : Jimi Hendrix
Bass Performance: Foxey Lady
Comments:       : ---
Strings: E ,A ,D ,G 
Symbols explanations:
  H: hammer on  P: pull off
  +: slap       .: pop
  : slide up   /: slide down
  --x~~x~~x: triplets
====================

| Riff1                                       
G ------------------------------------------------------------------------------
D ------------------------------------------------------------------------------
A --------0--------0--------0--2--3--4------------------------------------------
E --2--2-----2--2-----2--2------------------------------------------------------
>                                                                                

| Riff2
G ------------------------------------------------
D ------------------------------------------------
A --------------------------------------2--2--2--2
E --2--2--2--2--2--2--2--2--0--0--0--0------------
>
Show more