• Song:

    Foxy Lady

  • Artist:

    Jimi Hendrix

  • Album:

    Experience Hendrix Box ...

Song : Foxy Lady
Artist : Jimi Hendrix

G------------------------------------------   
D-------4-----------4-----------4----------
A------------------------------------0-2-3-4
E---2-2-------2-2---------2-2---------------   x4  

G---------------------------------------------
D-------------------------------------------
A------------------------------------2-2-2-2--
E---2-2-2-2-2-2-2-2-0-0-0-0-0-0-0-0---------2-

Enjoy it!!
Please rate this tab!! Thanks!!
Show more