• Song:

    Foxy Lady Solo

  • Artist:

    Jimi Hendrix

Tabbed By Max 
Jimi Hendrix-Foxy Lady

Intro
e------5-x------5-5-----------------------------------------------------------------
B------5-x------5-5-----------------------------------------------------------------
G-----------------------------------------------------------------------------------
D-----------4-4---------------------------------------------------------------------
A--------------------0-2-3-4--------------------------------------------------------
E-2-2-------------------------------------------------------------------------------

Chorus
e-----------------------------------------------------------------------------------
B-----2-x-x-2-2-2--------------------------------2-x-x-2---2------------------------
G-----3-x-x-3-3-3----1---1-x-x-------------------3-x-x-3---3----1---1---------------
D---4-4-x-x-4-4-4----2---2-x-x-----4-----2/4-----4-x-x-4-4-4----2---1---------------
A--------------------2---2-x-x-4/6---2/4------------------------2---2-----2-2-3-3---
E-2-2-2-----2-2-2-2--0-0-0-------------------2-2-2-----2-2-2-2--0-0-0-0-0-----------

Solo
e-----------------------------------------------------------------------------14----
B-17fb-17fb------------------------------------------------------------------14---17
G----------14--------------------------------------------------------------16-------
D-------------15/16-14p12----------14-16fb-16-16-16p14h16p14----14-14-14------------
A-------------------------12----16---------------------------16----------16---------
E----------------------------14-----------------------------------------------------

e-14----14----14-17-17-14----14-16-14-----------------------------------------------
B----17----14-------------17----------14----14-17-17-14-17-14-14-17-14-14-14-17-17--
G----------------------------------------16-------16-------16-------16-16-----------
D-----------------------------------------------------------------------------------
A-----------------------------------------------------------------------------------
E-----------------------------------------------------------------------------------

e-14--17-------------14----14----14------------------------------------------------
B---17--14-14-17-14-14----17-14-14-14-----------------------------------------------
G-------16-------16-------------16-----16p14----14----------------------------------
D--------------------------------------16----16p14----14----------------------------
A--------------------------------------------------16----16p14-12-14-14~~-----------
E-----------------------------------------------------------------------------------

Thank God For Jimi the Master on the Guitar
Show more