• Song:

    Freedom

  • Artist:

    Jimi Hendrix

  • Album:

    Voodoo Soup

this isnt complete but its the best i could do


Basic Riff:
e---------------------|----------------------|
B---------------------|-(6)(6)---------------|
G-----6---------6-6-4-|--6--6----------6-6-4-|
D-----6---------6-6-4-|--6--6----------6-6-4-|
A-----4-------2-4-4-2-|--4--4--------2-4-4-2-|
E-------0-2-4---------|-------0-2b-4---------|

Part right before bridge:
e----------------|-------------|
B----------------|-------------|
G----------------|-----------2-|
D----------------|-----2---4---|
A--------------2-|---4---------|
E----0-0-2---4---|-------------|

Bridge Riff     full bend
e---------------^---|               e-------------------|
B------------4_/----|               B-------------------|
G------------4------| Twice then... G-------------x-2---|
D-------------------|               D-----------x-x-----|
A-----2--4----------|               A-----2--4--x-------|
E-----0--2----------|               E-----0--2----------|

Part of the solo section (2:13 on cd)
e-----------------------------|------------------------|
B-----------------------------|------------------------|
G-----------------------------|------------------------|
D-----4-4-4-4-4--2-1----------|-------------4/6--------|
A--------------------4------1-|---2---2-3-4------------|
E----------------------2------|------------------0---0-|

Outro Part   That "^" is a hammer-on here.
e--------------|------------|----------------|------------|------------|
B--------------|------------|----------------|------------|------------|
G----------^---|--9---^-----|---------11--^--|----7--^----|------9--^--|
D---------9-11-|----11-9----|-------11---7-9-|------9-7---|----9---5-7-|
A--------------|---------10-|-----9----------|----------8-|--7---------|
E--------------|------------|----------------|------------|------------|

e----------|--------------|------------|----4-4--7-7--10-10--13-13-16-|
B----------|--------------|------------|----4-4--7-7--10-10--13-13-16-|
G--5-------|--------7--^--|---4---^----|----4-4--7-7--10-10--13-13-16-|
D----7-5---|------7---4-6-|------6-4---|----3-3--6-6--9--9---12-12-15-|
A--------5-|----5---------|----------5-|----4-4--6-6--10-10--12-12-16-|
E----------|--------------|------------|------------------------------|
Show more