• Song:

    Freedom And You

  • Artist:

    Jimi Hendrix

  • Album:

    Jimi Hendrix Collection

Artist: Jimi Hendrix
Song: freedom And You
Album: Jimi Hendrix

?^? = bend from ? to ?
r   = release bend
-r  = release bend slowly
h   = hammer on
p   = pull of
/   = slide up
   = slid down
b   = bend 1/4 tune

Tabbed by yogaguitar, mats_lexell88@hotmail.com

|------------------------------------------12-12^14-r-12-12----------------------|
|---------------------------------------12------------------15p12h15p12----------|
|----10^11-14-------9----------10^11h14---------------------------------14h16p14-|
|-12-----------14-9---9-12--12---------------------------------------------------|
|--------------------------------------------------------------------------------|
|--------------------------------------------------------------------------------|


|--------------------------------------------------------------------------12-|
|-----------------------------------------------------------------------------|
|---------------------------------------------12b--------------------11-11----|
|-12-16h14p12-9-1412-----12h14-14p12-12--14b-----14p12----14p12--12----------|
|----------------------14-------------------------------14--------------------|
|-----------------------------------------------------------------------------|


|-12^14--12^14-12-------7h10p7----------------------------------------------------|
|-----------------127---------10-7p5---------7-10--------------------------------|
|-------------------------------------7---7-9----------------------9----9^11-r--7-|
|---------------------------------------9------------7------9-12---12-----------|
|----------------------------------------------------------12---------------------|
|---------------------------------------------------------------------------------|


|-------------------------------------------------------------------------------|
|--------------12-12-------12-12------------------------------------------------|
|-9^11r-7h9p7--10-10-10^11-10-10--7h9p7---7--9^11-14---9p7----------------------|
|---------------------------------------9---------------------------------12h14-|
|----------------------------------------------------------------5--12/14-------|
|------------------------------------------------------------5/7----------------|


|-----------12-12^14-(6x)-12-10---------------------------------------------------|
|-------------------------------12-10-----------------------------------------12--|
|-11-14--14---------------------------------------------10^11-14-----10^11-14-----|
|-------------------------------------14p12-14-12--9h12-----------12--------------|
|---------------------------------------------------------------------------------|
|---------------------------------------------------------------------------------|


|-14-16^17-14-12-10h12p10------------------------------------------------------|
|--------------------------15p12------------------------------------------------|
|--------------------------------14-11------------------------------------------|
|--------------------------------------12-14-12-9-14p12----14p12-----14-12------|
|-------------------------------------------------------14--------14--------5/9-|
|-------------------------------------------------------------------------------|


|-------------------------------------------------------------12^14-12-10-------|
|---------------------12-15-12--------------------12-15-15-12-------------12----|
|-----7---7h9p7-11-14----------14----------11-14-----------------------------14-|
|-7-9---9-------------------------14p12-14--------------------------------------|
|-------------------------------------------------------------------------------|
|-------------------------------------------------------------------------------|


|--------------------------------------------------------------------------------|
|-----------------------------------------------------12-15-15-153-------------|
|-9p7-9-7-9h10p9p7-9-7-7-9h10-9h10p9p7-9h10p9p7-11-14-----------164-------7p4-7-|
|----------------------------------------------------------------------4-7-------|
|--------------------------------------------------------------------5-----------|
|--------------------------------------------------------------------------------|


|---------------------------------------------------------------------------------|
|-------------------------------------------------------------12-15-17-^19-19-^22-|
|-10^11-14----------------------------------------10^11-12^14---------------------|
|----------14p12-14-12-15p12----14-12-14^16-14-12---------------------------------|
|----------------------------14---------------------------------------------------|
|---------------------------------------------------------------------------------|


|-----------------------------------------------------9-10-12-10------------------|
|-22-22-22-----------------7-----------------------10-----------------------------|
|-------------------4-7--9^11--9p7-9-p7---7--10^11----------------14--10p9p7-9-7-|
|----------16-4-7---------------------9-----------------------------------------|
|---------------------------------------------------------------------------------|
|---------------------------------------------------------------------------------|

Fade out
|---------------------------------------------------------------------------------|
|---------------------------------------------------------------------------------|
|-7-7--9h10p9p7-9h10p9p7-9h10p9p7-9h10p9p7-10p9p7-9h10-10p9p7-9h10-10p9p7-7h9h11--|
|---------------------------------------------------------------------------------|
|---------------------------------------------------------------------------------|
|---------------------------------------------------------------------------------|


|--------------------------|
|----12-15--17-17^19-17^19-|
|-14-----------------------|
|--------------------------|
|--------------------------|
|--------------------------|


If you want to use the chords they are the following:
	Ones in a while	and ones in another while
|---------------|---------------------------|-----------------------------|
|-3-3-x-8-8-x---|-8--8--8--8-8-8--8--8--8---|-10------------8-------------|
|-2-2-x-7-7-x-o-|-7--7--7--7-7-7--7--7--7-o-|-9--(12 times)-7-(12 times-o-|
|-0-0-x-5-5-x-o-|-5--5--5--5-5-5--5--5--5-o-|-7-------------5-----------o-|
|---------------|---------------------------|-----------------------------|
|---------------|---------------------------|-----------------------------|
Show more