• Song:

    Hey Baby

  • Artist:

    Jimi Hendrix

  • Album:

    Rainbow Bridge

Descrition : This is just the intro to the song Hey Baby
	     (new rising Sun). It sounds pretty much right
	     hopefully no errors came about when tabbing it
	     out! It may look a little complicated at first,
             but a lot of it is bar chords and if you use your
             thumb on the low e (most of the time) you will find
             it a little easier.
	     also there are plenty of pattern structures.




let ring						       Sl
E----------------------------------0--------------------------------
b------0----------------------1----1----1------------------------(3)
g------0----------------------0----0----0-------------------------4-
d------2----------------------2----2----2--------------0-1-2-(3)/-5-
a------2----------------0-1-2-3----3----3----0-1-2-3-4--------------
e--0----------0-1-2-3-4---------------------------------------------


		h p
E------------------------------5------------5----------------0------
b------3-------3^5^3-----------3------------5----------0-----0------
g------4-------4-----4---------0------------0----------1-----1------
d----5---5---5--------5-----4---------------0----------2--2--2------
a-------------------------5--------5-----4------4------2-----2------
e--3-------3---------------------------5--------5------0-----0------



E-------------------------------------------------------------------
b-------------------------------------------------------------------
g-------------------------------------------------------------------
d--3-2-1-0---------------------3-------------------1-0---3-1-0------
a----------3-2-1-0------3--0-1----1-0-----1-0----------3-------3-1--
e-------------------0-1---------------3-1-----3-1-------------------



    Strum
E-----------------------6-------4-----------------------------------
b--8----8--8--8--8--8---6-------6----6--6--6--6--6---3--------------
g--8----8--8--8--8--8---7-------6----6--6--6--6--6---4--------------
d--8----8--8--8--8--8---8-------6----6--6--6--6--6---5--------------
a--6----6--6--6--6--6---8-------4----4--4--4--4--4---5--------------
e-----------------------6----------------------------3--------------



					  sl       h  p
E------4------------5------------6----------------------------------
b------4------------5------------6----------------------------------
g--5---5--------6---6--------7---7----------------------------------
d--6---6--------7---7--------8---8-------------8--8^10^8------------
a--6---6--------7---7--------8---8-------8/10------------8----------
e--4---4---4----5---5---5----6---6---6------------------------------


    Strum
E-----------------------6-------4-----------------------------------
b--8----8--8--8--8--8---6-------6----6--6--6--6--6---3--------------
g--8----8--8--8--8--8---7-------6----6--6--6--6--6---4--------------
d--8----8--8--8--8--8---8-------6----6--6--6--6--6---5--------------
a--6----6--6--6--6--6---8-------4----4--4--4--4--4---5--------------
e-----------------------6----------------------------3--------------



E------4------------5------------6----------------------------------
b------4------------5------------6------------8---------------------
g--5---5--------6---6--------7---7--------8---9---------------------
d--6---6--------7---7--------8---8--------9---10--------------------
a--6---6--------7---7--------8---8--------9---10--------------------
e--4---4---4----5---5---5----6---6---6----7---8---------------------



		  sl	      sl			  sl
E----------------------------------------6--------------------------
b------10-------------------------6------6--------7-----------------
g--10--10-------------------------7------7----7---7-----------------
d--10--10----------------------8--8------8----7---7-----------------
a--8---8----8-10-8/7-8-7-------8--------------5---5--5-7-5/4-5-4----
e------------------------10-8-/6------6--------------------------7-5



  sl		h p			 sl
E----------------------------------------------------------------0--
b------3-------3-----------------4---------------------0------0-----
g------4-------4^5^4---------4---4---------------------1------------
d--5---5-------5------5------4---4---------------------2---2--------
a--5--------------------5----2---2--2-4-2/1-2-1-----2--2---2--------
e-/3-------3------------------------------------4-2-0--0---0--------




chorusjammed@hotmail.com

From: car@parks.parks.tas.gov.au (Colin Reed - GIS Section)
Subject: h/hendrix_jimi/hey_baby.tab

Hey Baby (Land of the New Rising Sun) - Jimi Hendrix
----------------------------------------------------


Tab by Colin Reed (car@parks.parks.tas.gov.au)

e-|-----0--|-----------------------|--0--0--|--------------------------|-----3
B-|-----0--|-----------------------|--1--1--|--------------------------|-----0
G-|-----1--|-----------------------|--0--0--|-----------------------0--|-----0
D-|-----2--|-----------------------|--2--2--|--------------0--2--3-----|-----0
A-|--2--2--|--------------0--1--2--|--3--3--|--0--1--2--3--------------|--2--2
E-|--0--0--|--0--1--2--3-----------|--0--0--|--------------------------|--3--3


e-|-----------|-----------|-----------0--|-----------------------------|------
B-|-----------|-----------|-----------0--|-----------------------------|------
G-|--7--5-----|-----------|--------1--1--|-----------------------------|------
D-|--5--3--7--|--7--5-----|--------2--2--|--3--2--0-----0--------------|------
A-|--------5--|--5--3--7--|--7--5--2--2--|-----------3-----3--2--0-----|--3---
E-|-----------|--------5--|--5--3--0--0--|--------------------------3--|------


e-|-----------------------|--------------------------|------------------------
B-|-----------------------|--------------------------|------------------------
G-|-----------------------|--------------------------|------------------------
D-|-----------0-----------|--------------------------|--1--0--------1--0-----3
A-|--------2-----2--------|--1--0--------1--0--------|--------3--1--------3---
E-|--1--3-----------3--1--|--------3--1--------3--1--|------------------------


e-|-----------------------|--1--|---------------------------------------------
B-|-----------------------|--1--|---------------------------------------------
G-|-----------------------|--2--|---------------------------------------------
D-|--1--0-----------------|--3--|---------------------------------------------
A-|--------3--1--0--------|--3--|---------------------------------------------
E-|-----------------3--2--|--1--|---------------------------------------------


e-|--6--6--6--6--6--|--4--4--4--4--4--|--------------------------|------------
B-|--8--8--8--8--6--|--6--6--6--6--4--|--------------------------|------------
G-|--8--8--8--8--7--|--6--6--6--6--5--|--------------------------|------------
D-|--8--8--8--8--8--|--6--6--6--6--6--|--------6-----------7-----|--------8---
A-|--6--6--6--6--8--|--4--4--4--4--6--|-----------6-----------7--|-----------8
E-|--6--6--6--6--6--|--4--4--4--4--4--|--4--4--------5--5--------|--6--6------

e-|--------------|------------------------------------------------------------
B-|--------------|------------------------------------------------------------
G-|--------------|------------------------------------------------------------
D-|--------9-----|------------------------------------------------------------
A-|-----------9--|------------------------------------------------------------
E-|--7--7--------|------------------------------------------------------------

e-|--6--6--6--6--6--|--4--4--4--4--4--|--------------------------|------------
B-|--8--8--8--8--6--|--6--6--6--6--4--|--------------------------|------------
G-|--8--8--8--8--7--|--6--6--6--6--5--|--------------------------|------------
D-|--8--8--8--8--8--|--6--6--6--6--6--|--------6-----------7-----|--------8---
A-|--6--6--6--6--8--|--4--4--4--4--6--|-----------6-----------7--|-----------8
E-|--6--6--6--6--6--|--4--4--4--4--4--|--4--4--------5--5--------|--6--6------

e-|--------------|------------------------------------------------------------
B-|--------------|------------------------------------------------------------
G-|--------------|------------------------------------------------------------
D-|--------9-----|------------------------------------------------------------
A-|-----------9--|------------------------------------------------------------
E-|--7--7--------|------------------------------------------------------------


e-|--8--8--|-----------------------------|--6--6--6--6--|---------------------
B-|-10-10--|-----------------------------|--6--6--6--6--|---------------------
G-|-10-10--|-----------------------------|--7--7--7--7--|---------------------
D-|-10-10--|-----------------------------|--8--8--8--8--|---------------------
A-|--8--8--|--8-10--8--7--8--7-----------|--8--8--8--8--|---------------------
E-|--8--8--|-------------------10--8--6--|--6--6--6--6--|---------------------


e-|--5--5--|--------------------------|---------------------------------------
B-|--7--7--|--------------------------|---------------------------------------
G-|--7--7--|--------------------------|---------------------------------------
D-|--7--7--|--------------------------|---------------------------------------
A-|--5--5--|--5--7--5--4--5--4--------|---------------------------------------
E-|--5--5--|--------------------7--5--|---------------------------------------


e-|-----3--------3--|-----2--|--------------------------|--0------------------
B-|-----3--------3--|-----4--|--------------------------|--0------------------
G-|-----4--------4--|-----4--|--------------------------|--1------------------
D-|-----5--------5--|--4--4--|--------------------------|--2------------------
A-|-----5--5--5--5--|--2--2--|--2--4--2--1--2--1--------|--2------------------
E-|--3--3--3--3--3--|--2--2--|--------------------4--2--|--0------------------

     Am             G              F              D
e-|--------------|--------------|--------------|--5--5--5--5--5--|------------
B-|--------------|--------------|--------------|--7--7--7--7--7--|------------
G-|--------------|--------------|--------------|--7--7--7--7--7--|------------
D-|--------7-----|--------5-----|--------3-----|--7--7--7--7--7--|------------
A-|-----------7--|-----------5--|-----------3--|--5--5--5--5--5--|------------
E-|--5--5--------|--3--3--------|--1--1--------|--5--5--5--5--5--|------------
    (Solo around this for a while....)

     Am             G              F              D		
e-|--------------|--------------|--------------|--5--5--5--5--|---------------
B-|--------------|--------------|--------------|--7--7--7--7--|---------------
G-|--------------|--------------|--------------|--7--7--7--7--|---------------
D-|--------7-----|--------5-----|--------3-----|--7--7--7--7--|---------------
A-|-----------7--|-----------5--|-----------3--|--5--5--5--5--|---------------
E-|--5--5--------|--3--3--------|--1--1--------|--5--5--5--5--|---------------

    Hey Baby...
    
    Am              Db             D G              F#           E
e-|--------------|--4--4--4--4--|--5-10-10-10-10--|--9--9--9--|--7--7--7------
B-|--------------|--6--6--6--6--|--7-12-12-12-12--|-11-11-11--|--9--9--9------
G-|--5--5--5--5--|--6--6--6--6--|--7-12-12-12-12--|-11-11-11--|--9--9--9------
D-|--7--7--7--7--|--6--6--6--6--|--7/12-12-12-12--|-11-11-11--|--9--9--9------
A-|--7--7--7--7--|--4--4--4--4--|--5-10-10-10-10--|--9--9--9--|--7--7--7------
E-|--5--5--5--5--|--4--4--4--4--|--5-10-10-10-10--|--9--9--9--|--7--7--7------

    Am              Db             D
e-|--------------|--4--4--4--4--|--5--5--5--5--5--5--5--5---------------------
B-|--------------|--6--6--6--6--|--7--7--7--7--7--7--7--7---------------------
G-|--5--5--5--5--|--6--6--6--6--|--7--7--7--7--7--7--7--7---------------------
D-|--7--7--7--7--|--6--6--6--6--|--7--7--7--7--7--7--7--7---------------------
A-|--7--7--7--7--|--4--4--4--4--|--5--5--5--5--5--5--5--5---------------------
E-|--5--5--5--5--|--4--4--4--4--|--5--5--5--5--5--5--5--5---------------------
     
     E     G     B     D             Am
e-|-----|--3--|--7--|--5--|--5--5--|--5---------------------------------------
B-|-----|--3--|--7--|--7--|--7--7--|--5---------------------------------------
G-|--1--|--4--|--8--|--7--|--7--7--|--6---------------------------------------
D-|--2--|--5--|--9--|--7--|--7--7--|--7---------------------------------------
A-|--2--|--5--|--9--|--5--|--5--5--|--7---------------------------------------
E-|-----|--3--|--7--|--5--|--5--5--|--5---------------------------------------
Show more