• Song:

    Hey Joe

  • Artist:

    Jimi Hendrix

  • Album:

    BBC Sessions

Hey Joe 
By Jimi Hendrix
tab by: Dillon Jeffreys

intro

G |-----7-----7------|
D |-7h9---7h9---9/3--|
A |------------------|
E |------------------|

Verse
 
G |-------------------------------------------------|
D |------------------------------------5------------|
A |----3-33---235-55---457-7---5---5-7---7-7-77-7---|     X 4
E |---------3--------5-------7---7------------------|


Chorus

G |-------------------------------------------------|
D |------------------------------------5------------|
A |----3-33---235-55---457-7---5---5-7---7-7-77-7---|     X 4
E |---------3--------5-------7---7------------------|


Solo

G |-------------------------------------------------|
D |------------------------------------5------------|
A |----3-33---235-55---457-7---5---5-7--7-7-77-7----|     X 2
E |---------3--------5-------7---7------------------|

Bridge type thing

G|-----------------------------------------------------------|
D|---------------------------------------------5-------------|
A|-3---------2-3-4-5---------4-5-6-7---5---5-7---7-7-77-7----|   X 1
E|---0-1-2-3---------0-3-4-5---------7---7-------------------|


Chorus


G |-------------------------------------------------|
D |------------------------------------5------------|
A |----3-33---235-55---457-7---5---5-7--7-7-77-7----|     
E |---------3--------5-------7---7------------------|

G |-----------------------------------------|
D |-----------------------------------------|
A |----3-33---235-55---457-7777777777777777-|
E |---------3--------5----------------------|


G |-----------------------------------------------|
D |------------------------------------5----------|
A |----3-33---235-55---457-7---5---5-7---7-7-77-7-|     
E |---------3--------5-------7---7----------------|



G|-----------------------------------------------------------|
D|---------------------------------------------5-------------|
A|-3---------2-3-4-5---------4-5-6-7---5---5-7---7-7-77-7----|   
E|---0-1-2-3---------0-3-4-5---------7---7-------------------|


G |-------------------------------------------------|
D |------------------------------------5------------|
A |----3-33---235-55---457-7---5---5-7---7-7-77-7---|    
E |---------3--------5-------7---7------------------|


G|-----------------------------------------------------------|
D|---------------------------------------------5-------------|
A|-3---------2-3-4-5---------4-5-6-7---5---5-7-----7-7-77-7--|   X 2 (fades Out)
E|---0-1-2-3---------0-3-4-5---------7---7-------------------|

enjoy!
Show more